  0
SECTION
  2
HEADER
  9
$ACADVER
  1
AC1015
  9
$ACADMAINTVER
 70
     6
  9
$DWGCODEPAGE
  3
ANSI_1254
  9
$INSBASE
 10
0.0
 20
0.0
 30
0.0
  9
$EXTMIN
 10
0.0
 20
0.0
 30
0.0
  9
$EXTMAX
 10
279.4
 20
215.9
 30
0.0
  9
$LIMMIN
 10
0.0
 20
0.0
  9
$LIMMAX
 10
279.4
 20
215.9
  9
$ORTHOMODE
 70
     0
  9
$REGENMODE
 70
     1
  9
$FILLMODE
 70
     1
  9
$QTEXTMODE
 70
     0
  9
$MIRRTEXT
 70
     1
  9
$LTSCALE
 40
1.0
  9
$ATTMODE
 70
     1
  9
$TEXTSIZE
 40
3.5
  9
$TRACEWID
 40
1.0
  9
$TEXTSTYLE
  7
Standard
  9
$CLAYER
  8
0
  9
$CELTYPE
  6
ByLayer
  9
$CECOLOR
 62
   256
  9
$CELTSCALE
 40
1.0
  9
$DISPSILH
 70
     0
  9
$DIMSCALE
 40
1.0
  9
$DIMASZ
 40
3.5
  9
$DIMEXO
 40
1.0
  9
$DIMDLI
 40
3.75
  9
$DIMRND
 40
0.0
  9
$DIMDLE
 40
0.0
  9
$DIMEXE
 40
1.0
  9
$DIMTP
 40
0.0
  9
$DIMTM
 40
0.0
  9
$DIMTXT
 40
3.5
  9
$DIMCEN
 40
2.5
  9
$DIMTSZ
 40
0.0
  9
$DIMTOL
 70
     0
  9
$DIMLIM
 70
     0
  9
$DIMTIH
 70
     1
  9
$DIMTOH
 70
     1
  9
$DIMSE1
 70
     0
  9
$DIMSE2
 70
     0
  9
$DIMTAD
 70
     1
  9
$DIMZIN
 70
     0
  9
$DIMBLK
  1

  9
$DIMASO
 70
     1
  9
$DIMSHO
 70
     1
  9
$DIMPOST
  1

  9
$DIMAPOST
  1

  9
$DIMALT
 70
     0
  9
$DIMALTD
 70
     3
  9
$DIMALTF
 40
0.0393700787
  9
$DIMLFAC
 40
1.0
  9
$DIMTOFL
 70
     1
  9
$DIMTVP
 40
0.0
  9
$DIMTIX
 70
     0
  9
$DIMSOXD
 70
     0
  9
$DIMSAH
 70
     0
  9
$DIMBLK1
  1

  9
$DIMBLK2
  1

  9
$DIMSTYLE
  2
ISO-25
  9
$DIMCLRD
 70
     0
  9
$DIMCLRE
 70
     0
  9
$DIMCLRT
 70
     0
  9
$DIMTFAC
 40
1.0
  9
$DIMGAP
 40
1.524
  9
$DIMJUST
 70
     0
  9
$DIMSD1
 70
     0
  9
$DIMSD2
 70
     0
  9
$DIMTOLJ
 70
     0
  9
$DIMTZIN
 70
     0
  9
$DIMALTZ
 70
     0
  9
$DIMALTTZ
 70
     0
  9
$DIMUPT
 70
     0
  9
$DIMDEC
 70
     2
  9
$DIMTDEC
 70
     2
  9
$DIMALTU
 70
     2
  9
$DIMALTTD
 70
     3
  9
$DIMTXSTY
  7
Standard
  9
$DIMAUNIT
 70
     0
  9
$DIMADEC
 70
     2
  9
$DIMALTRND
 40
0.0
  9
$DIMAZIN
 70
     0
  9
$DIMDSEP
 70
    44
  9
$DIMATFIT
 70
     3
  9
$DIMFRAC
 70
     0
  9
$DIMLDRBLK
  1

  9
$DIMLUNIT
 70
     2
  9
$DIMLWD
 70
    -2
  9
$DIMLWE
 70
    -2
  9
$DIMTMOVE
 70
     0
  9
$LUNITS
 70
     2
  9
$LUPREC
 70
     2
  9
$SKETCHINC
 40
1.0
  9
$FILLETRAD
 40
10.0
  9
$AUNITS
 70
     0
  9
$AUPREC
 70
     2
  9
$MENU
  1
.
  9
$ELEVATION
 40
0.0
  9
$PELEVATION
 40
0.0
  9
$THICKNESS
 40
0.0
  9
$LIMCHECK
 70
     0
  9
$CHAMFERA
 40
0.0
  9
$CHAMFERB
 40
0.0
  9
$CHAMFERC
 40
0.0
  9
$CHAMFERD
 40
0.0
  9
$SKPOLY
 70
     0
  9
$TDCREATE
 40
2459741.601722002
  9
$TDUCREATE
 40
2459741.476722002
  9
$TDUPDATE
 40
2459741.601722187
  9
$TDUUPDATE
 40
2459741.476722187
  9
$TDINDWG
 40
0.0000000116
  9
$TDUSRTIMER
 40
0.0000000116
  9
$USRTIMER
 70
     1
  9
$ANGBASE
 50
0.0
  9
$ANGDIR
 70
     0
  9
$PDMODE
 70
     0
  9
$PDSIZE
 40
-1.0
  9
$PLINEWID
 40
0.0
  9
$SPLFRAME
 70
     0
  9
$SPLINETYPE
 70
     6
  9
$SPLINESEGS
 70
     8
  9
$HANDSEED
  5
12B
  9
$SURFTAB1
 70
     6
  9
$SURFTAB2
 70
     6
  9
$SURFTYPE
 70
     6
  9
$SURFU
 70
     6
  9
$SURFV
 70
     6
  9
$UCSBASE
  2

  9
$UCSNAME
  2

  9
$UCSORG
 10
0.0
 20
0.0
 30
0.0
  9
$UCSXDIR
 10
1.0
 20
0.0
 30
0.0
  9
$UCSYDIR
 10
0.0
 20
1.0
 30
0.0
  9
$UCSORTHOREF
  2

  9
$UCSORTHOVIEW
 70
     0
  9
$UCSORGTOP
 10
0.0
 20
0.0
 30
0.0
  9
$UCSORGBOTTOM
 10
0.0
 20
0.0
 30
0.0
  9
$UCSORGLEFT
 10
0.0
 20
0.0
 30
0.0
  9
$UCSORGRIGHT
 10
0.0
 20
0.0
 30
0.0
  9
$UCSORGFRONT
 10
0.0
 20
0.0
 30
0.0
  9
$UCSORGBACK
 10
0.0
 20
0.0
 30
0.0
  9
$PUCSBASE
  2

  9
$PUCSNAME
  2

  9
$PUCSORG
 10
0.0
 20
0.0
 30
0.0
  9
$PUCSXDIR
 10
1.0
 20
0.0
 30
0.0
  9
$PUCSYDIR
 10
0.0
 20
1.0
 30
0.0
  9
$PUCSORTHOREF
  2

  9
$PUCSORTHOVIEW
 70
     0
  9
$PUCSORGTOP
 10
0.0
 20
0.0
 30
0.0
  9
$PUCSORGBOTTOM
 10
0.0
 20
0.0
 30
0.0
  9
$PUCSORGLEFT
 10
0.0
 20
0.0
 30
0.0
  9
$PUCSORGRIGHT
 10
0.0
 20
0.0
 30
0.0
  9
$PUCSORGFRONT
 10
0.0
 20
0.0
 30
0.0
  9
$PUCSORGBACK
 10
0.0
 20
0.0
 30
0.0
  9
$USERI1
 70
     0
  9
$USERI2
 70
     0
  9
$USERI3
 70
     0
  9
$USERI4
 70
     0
  9
$USERI5
 70
     0
  9
$USERR1
 40
0.0
  9
$USERR2
 40
0.0
  9
$USERR3
 40
0.0
  9
$USERR4
 40
0.0
  9
$USERR5
 40
0.0
  9
$WORLDVIEW
 70
     1
  9
$SHADEDGE
 70
     3
  9
$SHADEDIF
 70
    70
  9
$TILEMODE
 70
     1
  9
$MAXACTVP
 70
    64
  9
$PINSBASE
 10
0.0
 20
0.0
 30
0.0
  9
$PLIMCHECK
 70
     0
  9
$PEXTMIN
 10
1.0000000000E+20
 20
1.0000000000E+20
 30
1.0000000000E+20
  9
$PEXTMAX
 10
-1.0000000000E+20
 20
-1.0000000000E+20
 30
-1.0000000000E+20
  9
$PLIMMIN
 10
0.0
 20
0.0
  9
$PLIMMAX
 10
420.0
 20
297.0
  9
$UNITMODE
 70
     0
  9
$VISRETAIN
 70
     1
  9
$PLINEGEN
 70
     0
  9
$PSLTSCALE
 70
     1
  9
$TREEDEPTH
 70
  3020
  9
$CMLSTYLE
  2
Standard
  9
$CMLJUST
 70
     0
  9
$CMLSCALE
 40
20.0
  9
$PROXYGRAPHICS
 70
     1
  9
$MEASUREMENT
 70
     1
  9
$CELWEIGHT
370
    -1
  9
$ENDCAPS
280
     0
  9
$JOINSTYLE
280
     0
  9
$LWDISPLAY
290
     1
  9
$INSUNITS
 70
     4
  9
$HYPERLINKBASE
  1

  9
$STYLESHEET
  1

  9
$XEDIT
290
     1
  9
$CEPSNTYPE
380
     0
  9
$PSTYLEMODE
290
     1
  9
$FINGERPRINTGUID
  2
{b7ec66b0-688f-4906-8d6a-9d2c6e7da61a}
  9
$VERSIONGUID
  2
{FAEB1C32-E019-11D5-929B-00C0DF256EC4}
  9
$EXTNAMES
290
     1
  9
$PSVPSCALE
 40
0.0
  9
$OLESTARTUP
290
     0
  0
ENDSEC
  0
SECTION
  2
CLASSES
  0
CLASS
  1
ACDBDICTIONARYWDFLT
  2
AcDbDictionaryWithDefault
  3
ObjectDBX Classes
 90
        0
280
     0
281
     0
  0
CLASS
  1
VISUALSTYLE
  2
AcDbVisualStyle
  3
ObjectDBX Classes
 90
     4095
280
     0
281
     0
  0
CLASS
  1
MATERIAL
  2
AcDbMaterial
  3
ObjectDBX Classes
 90
     1153
280
     0
281
     0
  0
CLASS
  1
SCALE
  2
AcDbScale
  3
ObjectDBX Classes
 90
     1153
280
     0
281
     0
  0
CLASS
  1
TABLESTYLE
  2
AcDbTableStyle
  3
ObjectDBX Classes
 90
     4095
280
     0
281
     0
  0
CLASS
  1
MLEADERSTYLE
  2
AcDbMLeaderStyle
  3
ACDB_MLEADERSTYLE_CLASS
 90
     4095
280
     0
281
     0
  0
CLASS
  1
SUN
  2
AcDbSun
  3
SCENEOE
 90
     1153
280
     0
281
     0
  0
CLASS
  1
ACDBPLACEHOLDER
  2
AcDbPlaceHolder
  3
ObjectDBX Classes
 90
        0
280
     0
281
     0
  0
CLASS
  1
LAYOUT
  2
AcDbLayout
  3
ObjectDBX Classes
 90
        0
280
     0
281
     0
  0
ENDSEC
  0
SECTION
  2
TABLES
  0
TABLE
  2
VPORT
  5
8
330
0
100
AcDbSymbolTable
 70
     1
  0
VPORT
  5
29
330
8
100
AcDbSymbolTableRecord
100
AcDbViewportTableRecord
  2
*Active
 70
     0
 10
0.0
 20
0.0
 11
1.0
 21
1.0
 12
139.7
 22
107.95
 13
0.0
 23
0.0
 14
10.0
 24
10.0
 15
10.0
 25
10.0
 16
0.0
 26
0.0
 36
1.0
 17
0.0
 27
0.0
 37
0.0
 40
215.9
 41
1.2941176471
 42
50.0
 43
0.0
 44
0.0
 50
0.0
 51
0.0
 71
     0
 72
  2000
 73
     1
 74
     3
 75
     0
 76
     0
 77
     0
 78
     0
281
     0
 65
     1
110
0.0
120
0.0
130
0.0
111
1.0
121
0.0
131
0.0
112
0.0
122
1.0
132
0.0
 79
     0
146
0.0
  0
ENDTAB
  0
TABLE
  2
LTYPE
  5
5
330
0
100
AcDbSymbolTable
 70
     6
  0
LTYPE
  5
14
330
5
100
AcDbSymbolTableRecord
100
AcDbLinetypeTableRecord
  2
ByBlock
 70
     0
  3

 72
    65
 73
     0
 40
0.0
  0
LTYPE
  5
15
330
5
100
AcDbSymbolTableRecord
100
AcDbLinetypeTableRecord
  2
ByLayer
 70
     0
  3

 72
    65
 73
     0
 40
0.0
  0
LTYPE
  5
16
330
5
100
AcDbSymbolTableRecord
100
AcDbLinetypeTableRecord
  2
Continuous
 70
     0
  3
Solid line
 72
    65
 73
     0
 40
0.0
  0
LTYPE
  5
6E
330
5
100
AcDbSymbolTableRecord
100
AcDbLinetypeTableRecord
  2
HIDDEN
 70
     0
  3
Hidden __ __ __ __ __ __ __ __ __ __ __ __ __ __
 72
    65
 73
     2
 40
1.905
 49
1.27
 74
     0
 49
-0.635
 74
     0
  0
LTYPE
  5
6F
330
5
100
AcDbSymbolTableRecord
100
AcDbLinetypeTableRecord
  2
PHANTOM
 70
     0
  3
Phantom ______  __  __  ______  __  __  ______
 72
    65
 73
     6
 40
12.7
 49
6.35
 74
     0
 49
-1.27
 74
     0
 49
1.27
 74
     0
 49
-1.27
 74
     0
 49
1.27
 74
     0
 49
-1.27
 74
     0
  0
LTYPE
  5
70
330
5
100
AcDbSymbolTableRecord
100
AcDbLinetypeTableRecord
  2
CENTER
 70
     0
  3
Center ____ _ ____ _ ____ _ ____ _ ____ _ ____
 72
    65
 73
     4
 40
10.16
 49
6.35
 74
     0
 49
-1.27
 74
     0
 49
1.27
 74
     0
 49
-1.27
 74
     0
  0
LTYPE
  5
71
330
5
100
AcDbSymbolTableRecord
100
AcDbLinetypeTableRecord
  2
CENTERX2
 70
     0
  3
Center (2x) ________  __  ________  __  _____
 72
    65
 73
     4
 40
20.32
 49
12.7
 74
     0
 49
-2.54
 74
     0
 49
2.54
 74
     0
 49
-2.54
 74
     0
  0
LTYPE
  5
72
330
5
100
AcDbSymbolTableRecord
100
AcDbLinetypeTableRecord
  2
DOT2
 70
     0
  3
Dot (.5x) ........................................
 72
    65
 73
     2
 40
0.635
 49
0.0
 74
     0
 49
-0.635
 74
     0
  0
ENDTAB
  0
TABLE
  2
LAYER
  5
2
330
0
100
AcDbSymbolTable
 70
    17
  0
LAYER
  5
10
330
2
100
AcDbSymbolTableRecord
100
AcDbLayerTableRecord
  2
0
 70
     0
 62
     7
  6
Continuous
370
    -3
390
F
  0
LAYER
  5
73
330
2
100
AcDbSymbolTableRecord
100
AcDbLayerTableRecord
  2
FORMAT
 70
     0
 62
     7
  6
Continuous
370
    -3
390
F
  0
LAYER
  5
74
330
2
100
AcDbSymbolTableRecord
100
AcDbLayerTableRecord
  2
YARDIMCI_GEOMETRI
 70
     0
 62
    -6
  6
Continuous
290
     0
370
    -3
390
F
  0
LAYER
  5
75
330
2
100
AcDbSymbolTableRecord
100
AcDbLayerTableRecord
  2
SAYFA_CERCEVESI
 70
     0
 62
     7
  6
Continuous
370
    25
390
F
  0
LAYER
  5
76
330
2
100
AcDbSymbolTableRecord
100
AcDbLayerTableRecord
  2
ANTET
 70
     0
 62
     7
  6
Continuous
370
    -3
390
F
  0
LAYER
  5
77
330
2
100
AcDbSymbolTableRecord
100
AcDbLayerTableRecord
  2
OLCU
 70
     0
 62
   150
  6
Continuous
370
    -3
390
F
  0
LAYER
  5
78
330
2
100
AcDbSymbolTableRecord
100
AcDbLayerTableRecord
  2
METIN
 70
     0
 62
    96
  6
Continuous
370
    -3
390
F
  0
LAYER
  5
79
330
2
100
AcDbSymbolTableRecord
100
AcDbLayerTableRecord
  2
BALON
 70
     0
 62
     5
  6
Continuous
370
    -3
390
F
  0
LAYER
  5
7A
330
2
100
AcDbSymbolTableRecord
100
AcDbLayerTableRecord
  2
VURGU
 70
     0
 62
     7
  6
Continuous
370
    -3
390
F
  0
LAYER
  5
7B
330
2
100
AcDbSymbolTableRecord
100
AcDbLayerTableRecord
  2
SILIK
 70
     0
 62
     7
  6
Continuous
370
    -3
390
F
  0
LAYER
  5
7C
330
2
100
AcDbSymbolTableRecord
100
AcDbLayerTableRecord
  2
MODEL
 70
     0
 62
     7
  6
Continuous
370
    -3
390
F
  0
LAYER
  5
7D
330
2
100
AcDbSymbolTableRecord
100
AcDbLayerTableRecord
  2
DETAYLANDıRMA
 70
     0
 62
   190
  6
Continuous
370
    -3
390
F
  0
LAYER
  5
7E
330
2
100
AcDbSymbolTableRecord
100
AcDbLayerTableRecord
  2
TOLERANS
 70
     0
 62
   230
  6
Continuous
370
    -3
390
F
  0
LAYER
  5
7F
330
2
100
AcDbSymbolTableRecord
100
AcDbLayerTableRecord
  2
MERKEZ_CIZGILERI
 70
     0
 62
    30
  6
Continuous
370
    -3
390
F
  0
LAYER
  5
80
330
2
100
AcDbSymbolTableRecord
100
AcDbLayerTableRecord
  2
KESIT-DETAY_CIZGILERI
 70
     0
 62
     7
  6
Continuous
370
    -3
390
F
  0
LAYER
  5
81
330
2
100
AcDbSymbolTableRecord
100
AcDbLayerTableRecord
  2
\U+041E\U+0421\U+0415\U+0412\U+042B\U+0415
 70
     0
 62
     7
  6
Continuous
370
    -3
390
F
  0
LAYER
  5
82
330
2
100
AcDbSymbolTableRecord
100
AcDbLayerTableRecord
  2
\U+0412\U+041E\U+0414\U+042F\U+041D\U+042B\U+0415_\U+0417\U+041D\U+0410\U+041A\U+0418
 70
     0
 62
    11
  6
Continuous
370
    -3
390
F
  0
ENDTAB
  0
TABLE
  2
STYLE
  5
3
330
0
100
AcDbSymbolTable
 70
     1
  0
STYLE
  5
11
330
3
100
AcDbSymbolTableRecord
100
AcDbTextStyleTableRecord
  2
Standard
 70
     0
 40
0.0
 41
1.0
 50
0.0
 71
     0
 42
3.5
  3
txt
  4

  0
ENDTAB
  0
TABLE
  2
VIEW
  5
6
330
0
100
AcDbSymbolTable
 70
     0
  0
ENDTAB
  0
TABLE
  2
UCS
  5
7
330
0
100
AcDbSymbolTable
 70
     0
  0
ENDTAB
  0
TABLE
  2
APPID
  5
9
330
0
100
AcDbSymbolTable
 70
     1
  0
APPID
  5
12
330
9
100
AcDbSymbolTableRecord
100
AcDbRegAppTableRecord
  2
ACAD
 70
     0
  0
ENDTAB
  0
TABLE
  2
DIMSTYLE
  5
A
330
0
100
AcDbSymbolTable
 70
     1
100
AcDbDimStyleTable
  0
DIMSTYLE
105
27
330
A
100
AcDbSymbolTableRecord
100
AcDbDimStyleTableRecord
  2
ISO-25
 70
     0
 41
2.5
 42
0.625
 43
3.75
 44
1.25
 73
     0
 74
     0
 77
     1
 78
     8
140
2.5
141
2.5
143
0.0393700787
147
0.625
171
     3
172
     1
178
     0
271
     2
272
     2
274
     3
278
    44
283
     0
284
     8
340
11
  0
ENDTAB
  0
TABLE
  2
BLOCK_RECORD
  5
1
330
0
100
AcDbSymbolTable
 70
     4
  0
BLOCK_RECORD
  5
1F
330
1
100
AcDbSymbolTableRecord
100
AcDbBlockTableRecord
  2
*Model_Space
340
22
  0
BLOCK_RECORD
  5
1B
330
1
100
AcDbSymbolTableRecord
100
AcDbBlockTableRecord
  2
*Paper_Space
340
1E
  0
BLOCK_RECORD
  5
23
330
1
100
AcDbSymbolTableRecord
100
AcDbBlockTableRecord
  2
*Paper_Space0
340
26
  0
BLOCK_RECORD
  5
93
330
1
100
AcDbSymbolTableRecord
100
AcDbBlockTableRecord
  2
SW_CENTERMARKSYMBOL_0
340
0
102
{BLKREFS
331
9E
102
}
  0
BLOCK_RECORD
  5
E9
330
1
100
AcDbSymbolTableRecord
100
AcDbBlockTableRecord
  2
SW_CENTERMARKSYMBOL_1
340
0
102
{BLKREFS
331
F4
102
}
  0
BLOCK_RECORD
  5
F5
330
1
100
AcDbSymbolTableRecord
100
AcDbBlockTableRecord
  2
SW_CENTERMARKSYMBOL_2
340
0
102
{BLKREFS
331
100
102
}
  0
ENDTAB
  0
ENDSEC
  0
SECTION
  2
BLOCKS
  0
BLOCK
  5
20
330
1F
100
AcDbEntity
  8
0
100
AcDbBlockBegin
  2
*Model_Space
 70
     0
 10
0.0
 20
0.0
 30
0.0
  3
*Model_Space
  1

  0
ENDBLK
  5
21
330
1F
100
AcDbEntity
  8
0
100
AcDbBlockEnd
  0
BLOCK
  5
1C
330
1B
100
AcDbEntity
 67
     1
  8
0
100
AcDbBlockBegin
  2
*Paper_Space
 70
     0
 10
0.0
 20
0.0
 30
0.0
  3
*Paper_Space
  1

  0
ENDBLK
  5
1D
330
1B
100
AcDbEntity
 67
     1
  8
0
100
AcDbBlockEnd
  0
BLOCK
  5
24
330
23
100
AcDbEntity
  8
0
100
AcDbBlockBegin
  2
*Paper_Space0
 70
     0
 10
0.0
 20
0.0
 30
0.0
  3
*Paper_Space0
  1

  0
ENDBLK
  5
25
330
23
100
AcDbEntity
  8
0
100
AcDbBlockEnd
  0
BLOCK
  5
94
330
93
100
AcDbEntity
  8
0
100
AcDbBlockBegin
  2
SW_CENTERMARKSYMBOL_0
 70
     0
 10
0.0
 20
0.0
 30
0.0
  3
SW_CENTERMARKSYMBOL_0
  1

  0
LINE
  5
96
330
93
100
AcDbEntity
  8
FORMAT
 62
     0
100
AcDbLine
 10
0.0
 20
0.0
 30
0.0
 11
0.0
 21
2.5
 31
0.0
  0
LINE
  5
97
330
93
100
AcDbEntity
  8
FORMAT
 62
     0
100
AcDbLine
 10
0.0
 20
0.0
 30
0.0
 11
-2.5
 21
0.0
 31
0.0
  0
LINE
  5
98
330
93
100
AcDbEntity
  8
FORMAT
 62
     0
100
AcDbLine
 10
0.0
 20
0.0
 30
0.0
 11
0.0
 21
-2.5
 31
0.0
  0
LINE
  5
99
330
93
100
AcDbEntity
  8
FORMAT
 62
     0
100
AcDbLine
 10
0.0
 20
0.0
 30
0.0
 11
2.5
 21
0.0
 31
0.0
  0
LINE
  5
9A
330
93
100
AcDbEntity
  8
FORMAT
 62
     0
100
AcDbLine
 10
0.0
 20
5.0
 30
0.0
 11
0.0
 21
252.5
 31
0.0
  0
LINE
  5
9B
330
93
100
AcDbEntity
  8
FORMAT
 62
     0
100
AcDbLine
 10
-5.0
 20
0.0
 30
0.0
 11
-252.5
 21
0.0
 31
0.0
  0
LINE
  5
9C
330
93
100
AcDbEntity
  8
FORMAT
 62
     0
100
AcDbLine
 10
0.0
 20
-5.0
 30
0.0
 11
0.0
 21
-252.5
 31
0.0
  0
LINE
  5
9D
330
93
100
AcDbEntity
  8
FORMAT
 62
     0
100
AcDbLine
 10
5.0
 20
0.0
 30
0.0
 11
252.5
 21
0.0
 31
0.0
  0
ENDBLK
  5
95
330
93
100
AcDbEntity
  8
0
100
AcDbBlockEnd
  0
BLOCK
  5
EA
330
E9
100
AcDbEntity
  8
0
100
AcDbBlockBegin
  2
SW_CENTERMARKSYMBOL_1
 70
     0
 10
0.0
 20
0.0
 30
0.0
  3
SW_CENTERMARKSYMBOL_1
  1

  0
LINE
  5
EC
330
E9
100
AcDbEntity
  8
FORMAT
 62
     0
100
AcDbLine
 10
0.0
 20
0.0
 30
0.0
 11
0.0
 21
2.5
 31
0.0
  0
LINE
  5
ED
330
E9
100
AcDbEntity
  8
FORMAT
 62
     0
100
AcDbLine
 10
0.0
 20
0.0
 30
0.0
 11
-2.5
 21
0.0
 31
0.0
  0
LINE
  5
EE
330
E9
100
AcDbEntity
  8
FORMAT
 62
     0
100
AcDbLine
 10
0.0
 20
0.0
 30
0.0
 11
0.0
 21
-2.5
 31
0.0
  0
LINE
  5
EF
330
E9
100
AcDbEntity
  8
FORMAT
 62
     0
100
AcDbLine
 10
0.0
 20
0.0
 30
0.0
 11
2.5
 21
0.0
 31
0.0
  0
LINE
  5
F0
330
E9
100
AcDbEntity
  8
FORMAT
 62
     0
100
AcDbLine
 10
0.0
 20
5.0
 30
0.0
 11
0.0
 21
9.5
 31
0.0
  0
LINE
  5
F1
330
E9
100
AcDbEntity
  8
FORMAT
 62
     0
100
AcDbLine
 10
-5.0
 20
0.0
 30
0.0
 11
-9.5
 21
0.0
 31
0.0
  0
LINE
  5
F2
330
E9
100
AcDbEntity
  8
FORMAT
 62
     0
100
AcDbLine
 10
0.0
 20
-5.0
 30
0.0
 11
0.0
 21
-9.5
 31
0.0
  0
LINE
  5
F3
330
E9
100
AcDbEntity
  8
FORMAT
 62
     0
100
AcDbLine
 10
5.0
 20
0.0
 30
0.0
 11
9.5
 21
0.0
 31
0.0
  0
ENDBLK
  5
EB
330
E9
100
AcDbEntity
  8
0
100
AcDbBlockEnd
  0
BLOCK
  5
F6
330
F5
100
AcDbEntity
  8
0
100
AcDbBlockBegin
  2
SW_CENTERMARKSYMBOL_2
 70
     0
 10
0.0
 20
0.0
 30
0.0
  3
SW_CENTERMARKSYMBOL_2
  1

  0
LINE
  5
F8
330
F5
100
AcDbEntity
  8
FORMAT
 62
     0
100
AcDbLine
 10
0.0
 20
0.0
 30
0.0
 11
0.0
 21
2.5
 31
0.0
  0
LINE
  5
F9
330
F5
100
AcDbEntity
  8
FORMAT
 62
     0
100
AcDbLine
 10
0.0
 20
0.0
 30
0.0
 11
-2.5
 21
0.0
 31
0.0
  0
LINE
  5
FA
330
F5
100
AcDbEntity
  8
FORMAT
 62
     0
100
AcDbLine
 10
0.0
 20
0.0
 30
0.0
 11
0.0
 21
-2.5
 31
0.0
  0
LINE
  5
FB
330
F5
100
AcDbEntity
  8
FORMAT
 62
     0
100
AcDbLine
 10
0.0
 20
0.0
 30
0.0
 11
2.5
 21
0.0
 31
0.0
  0
LINE
  5
FC
330
F5
100
AcDbEntity
  8
FORMAT
 62
     0
100
AcDbLine
 10
0.0
 20
5.0
 30
0.0
 11
0.0
 21
9.5
 31
0.0
  0
LINE
  5
FD
330
F5
100
AcDbEntity
  8
FORMAT
 62
     0
100
AcDbLine
 10
-5.0
 20
0.0
 30
0.0
 11
-9.5
 21
0.0
 31
0.0
  0
LINE
  5
FE
330
F5
100
AcDbEntity
  8
FORMAT
 62
     0
100
AcDbLine
 10
0.0
 20
-5.0
 30
0.0
 11
0.0
 21
-9.5
 31
0.0
  0
LINE
  5
FF
330
F5
100
AcDbEntity
  8
FORMAT
 62
     0
100
AcDbLine
 10
5.0
 20
0.0
 30
0.0
 11
9.5
 21
0.0
 31
0.0
  0
ENDBLK
  5
F7
330
F5
100
AcDbEntity
  8
0
100
AcDbBlockEnd
  0
ENDSEC
  0
SECTION
  2
ENTITIES
  0
LINE
  5
83
330
1F
100
AcDbEntity
  8
0
  6
Continuous
 62
     7
370
    25
100
AcDbLine
 10
113.2706251986
 20
391.9736897125
 30
0.0
 11
113.2706251986
 21
396.5584857756
 31
0.0
  0
LINE
  5
84
330
1F
100
AcDbEntity
  8
0
  6
Continuous
 62
     7
370
    25
100
AcDbLine
 10
99.2706251986
 20
396.5584857756
 30
0.0
 11
99.2706251986
 21
390.2733681139
 31
0.0
  0
LINE
  5
85
330
1F
100
AcDbEntity
  8
0
  6
Continuous
 62
     7
370
    25
100
AcDbLine
 10
183.2706251986
 20
390.2691013244
 30
0.0
 11
183.2706251986
 21
396.5584857756
 31
0.0
  0
LINE
  5
86
330
1F
100
AcDbEntity
  8
0
  6
Continuous
 62
     7
370
    25
100
AcDbLine
 10
169.2706251986
 20
396.5584857756
 30
0.0
 11
169.2706251986
 21
391.9717119562
 31
0.0
  0
CIRCLE
  5
87
330
1F
100
AcDbEntity
  8
0
  6
Continuous
 62
     7
370
    25
100
AcDbCircle
 10
141.2706251986
 20
106.5584857756
 30
0.0
 40
286.5
  0
ARC
  5
88
330
1F
100
AcDbEntity
  8
0
  6
Continuous
 62
     7
370
    25
100
AcDbCircle
 10
141.2706251986
 20
106.5584857756
 30
0.0
 40
288.5
100
AcDbArc
 50
98.3709012649
 51
180.0
  0
ARC
  5
89
330
1F
100
AcDbEntity
  8
0
  6
Continuous
 62
     7
370
    25
100
AcDbCircle
 10
141.2706251986
 20
106.5584857756
 30
0.0
 40
288.5
100
AcDbArc
 50
84.430464017
 51
95.569535983
  0
ARC
  5
8A
330
1F
100
AcDbEntity
  8
0
  6
Continuous
 62
     7
370
    25
100
AcDbCircle
 10
141.2706251986
 20
106.5584857756
 30
0.0
 40
288.5
100
AcDbArc
 50
180.0
 51
81.6290987351
  0
SPLINE
  5
8B
330
1F
100
AcDbEntity
  8
0
  6
Continuous
 62
     7
370
    25
100
AcDbSpline
210
0.0
220
0.0
230
1.0
 70
     8
 71
     3
 72
    15
 73
    11
 74
     0
 42
0.00000001
 43
0.00000001
 40
0.0
 40
0.0
 40
0.0
 40
0.0
 40
0.1349928436893721
 40
0.2699637975970971
 40
0.4054589750029833
 40
0.5413951137573356
 40
0.6771765874004481
 40
0.8120858945403582
 40
0.9457313308821971
 40
1.0
 40
1.0
 40
1.0
 40
1.0
 10
111.9101886351498
 20
391.7456233925971
 30
0.0
 10
111.3791750900537
 20
391.67589469325
 30
0.0
 10
110.31723410643
 20
391.5364486014219
 30
0.0
 10
108.0969634994912
 20
391.263253327071
 30
0.0
 10
105.7120054868443
 20
390.9697979855574
 30
0.0
 10
103.3756984952368
 20
390.6822036231737
 30
0.0
 10
101.3588379193098
 20
390.4377293972838
 30
0.0
 10
99.95423564820815
 20
390.282640041248
 30
0.0
 10
99.2620468241386
 20
390.2246413580144
 30
0.0
 10
99.34175573077997
 20
390.2624493513981
 30
0.0
 10
99.36477527084952
 20
390.2733681138716
 30
0.0
  0
SPLINE
  5
8C
330
1F
100
AcDbEntity
  8
0
  6
Continuous
 62
     7
370
    25
100
AcDbSpline
210
0.0
220
0.0
230
1.0
 70
     8
 71
     3
 72
    10
 73
     6
 74
     0
 42
0.00000001
 43
0.00000001
 40
0.0
 40
0.0
 40
0.0
 40
0.0
 40
0.1437087579921844
 40
0.672195599107815
 40
0.9999999999999999
 40
0.9999999999999999
 40
0.9999999999999999
 40
0.9999999999999999
 10
113.1928620539768
 20
391.9736897125348
 30
0.0
 10
113.2155973277277
 20
391.970965630032
 30
0.0
 10
113.3219412358748
 20
391.9582237742434
 30
0.0
 10
112.8366686181855
 20
391.8756614820854
 30
0.0
 10
112.1666748553286
 20
391.7816230673475
 30
0.0
 10
111.9101886351498
 20
391.7456233925971
 30
0.0
  0
SPLINE
  5
8D
330
1F
100
AcDbEntity
  8
0
  6
Continuous
 62
     7
370
    25
100
AcDbSpline
210
0.0
220
0.0
230
1.0
 70
     8
 71
     3
 72
    14
 73
    10
 74
     0
 42
0.00000001
 43
0.00000001
 40
0.0
 40
0.0
 40
0.0
 40
0.0
 40
0.154517830884127
 40
0.3090103367655591
 40
0.4640187193031713
 40
0.6189491578426468
 40
0.7732283392795429
 40
0.9266547109898959
 40
1.0
 40
1.0
 40
1.0
 40
1.0
 10
180.377090654784
 20
390.536042637837
 30
0.0
 10
179.6899854302894
 20
390.6194535495837
 30
0.0
 10
178.3158875957576
 20
390.7862617022824
 30
0.0
 10
175.8985851977822
 20
391.084487819011
 30
0.0
 10
173.5567155537262
 20
391.3721855515997
 30
0.0
 10
171.5017337939881
 20
391.6281115783252
 30
0.0
 10
170.0392985410564
 20
391.8242431965122
 30
0.0
 10
169.2866807875366
 20
391.9435301871405
 30
0.0
 10
169.3493440745698
 20
391.9648246411064
 30
0.0
 10
169.3696114081651
 20
391.9717119561946
 30
0.0
  0
SPLINE
  5
8E
330
1F
100
AcDbEntity
  8
0
  6
Continuous
 62
     7
370
    25
100
AcDbSpline
210
0.0
220
0.0
230
1.0
 70
     8
 71
     3
 72
    11
 73
     7
 74
     0
 42
0.00000001
 43
0.00000001
 40
0.0
 40
0.0
 40
0.0
 40
0.0
 40
0.0749228131053059
 40
0.4287064497624333
 40
0.7818067141979216
 40
0.9999999999999999
 40
0.9999999999999999
 40
0.9999999999999999
 40
0.9999999999999999
 10
183.2049040522928
 20
390.2691013244365
 30
0.0
 10
183.2252487781579
 20
390.2622390636369
 30
0.0
 10
183.3416607872048
 20
390.2229733801574
 30
0.0
 10
182.7775136106416
 20
390.2653655808156
 30
0.0
 10
181.7212235897929
 20
390.3761714107557
 30
0.0
 10
180.748573456341
 20
390.4918584580005
 30
0.0
 10
180.377090654784
 20
390.536042637837
 30
0.0
  0
CIRCLE
  5
8F
330
1F
100
AcDbEntity
  8
0
  6
Continuous
 62
     7
370
    25
100
AcDbCircle
 10
141.2706251986
 20
106.5584857756
 30
0.0
 40
250.0
  0
LINE
  5
90
330
1F
100
AcDbEntity
  8
0
  6
Continuous
 62
     7
370
    25
100
AcDbLine
 10
106.2706251986
 20
396.5584857756
 30
0.0
 11
99.2706251986
 21
396.5584857756
 31
0.0
  0
LINE
  5
91
330
1F
100
AcDbEntity
  8
0
  6
Continuous
 62
     7
370
    25
100
AcDbLine
 10
113.2706251986
 20
396.5584857756
 30
0.0
 11
106.2706251986
 21
396.5584857756
 31
0.0
  0
LINE
  5
92
330
1F
100
AcDbEntity
  8
0
  6
Continuous
 62
     7
370
    25
100
AcDbLine
 10
183.2706251986
 20
396.5584857756
 30
0.0
 11
169.2706251986
 21
396.5584857756
 31
0.0
  0
INSERT
  5
9E
330
1F
100
AcDbEntity
  8
FORMAT
 62
     7
100
AcDbBlockReference
  2
SW_CENTERMARKSYMBOL_0
 10
141.2706251986
 20
106.5584857756
 30
0.0
  0
ARC
  5
9F
330
1F
100
AcDbEntity
  8
0
  6
Continuous
 62
     7
370
    25
100
AcDbCircle
 10
890.7122654485
 20
-5807.5040142245
 30
0.0
 40
6202.56250000002
100
AcDbArc
 50
90.0
 51
91.2794913482
  0
LINE
  5
A0
330
1F
100
AcDbEntity
  8
0
  6
Continuous
 62
     7
370
    25
100
AcDbLine
 10
738.2122654485
 20
393.1834731762
 30
0.0
 11
733.2122654485
 21
393.0584857756
 31
0.0
  0
ARC
  5
A1
330
1F
100
AcDbEntity
  8
0
  6
Continuous
 62
     7
370
    25
100
AcDbCircle
 10
890.7122654485
 20
6020.6209857756
 30
0.0
 40
6202.56250000002
100
AcDbArc
 50
268.5449472973
 51
270.0
  0
LINE
  5
A2
330
1F
100
AcDbEntity
  8
0
  6
Continuous
 62
     7
370
    25
100
AcDbLine
 10
890.7122654485
 20
-181.9415142244
 30
0.0
 11
935.7122654485
 21
-181.9415142244
 31
0.0
  0
LINE
  5
A3
330
1F
100
AcDbEntity
  8
0
  6
Continuous
 62
     7
370
    25
100
AcDbLine
 10
935.7122654485
 20
395.0584857756
 30
0.0
 11
890.7122654485
 21
395.0584857756
 31
0.0
  0
LINE
  5
A4
330
1F
100
AcDbEntity
  8
0
  6
Continuous
 62
     7
370
    25
100
AcDbLine
 10
1093.2122654485
 20
393.0584857756
 30
0.0
 11
1088.2122654485
 21
393.1834731762
 31
0.0
  0
ARC
  5
A5
330
1F
100
AcDbEntity
  8
0
  6
Continuous
 62
     7
370
    25
100
AcDbCircle
 10
935.7122654485
 20
-5807.5040142245
 30
0.0
 40
6202.56250000002
100
AcDbArc
 50
88.7205086518
 51
90.0
  0
ARC
  5
A6
330
1F
100
AcDbEntity
  8
0
  6
Continuous
 62
     7
370
    25
100
AcDbCircle
 10
935.7122654485
 20
6020.6209857756
 30
0.0
 40
6202.56250000002
100
AcDbArc
 50
270.0
 51
271.4550527027
  0
LINE
  5
A7
330
1F
100
AcDbEntity
  8
0
  6
Continuous
 62
     7
370
    25
100
AcDbLine
 10
752.2122654485
 20
391.3664055647
 30
0.0
 11
752.2122654485
 21
396.5584857756
 31
0.0
  0
LINE
  5
A8
330
1F
100
AcDbEntity
  8
0
  6
Continuous
 62
     7
370
    25
100
AcDbLine
 10
738.2122654485
 20
396.5584857756
 30
0.0
 11
738.2122654485
 21
391.0377446315
 31
0.0
  0
LINE
  5
A9
330
1F
100
AcDbEntity
  8
0
  6
Continuous
 62
     7
370
    25
100
AcDbLine
 10
1088.2122654485
 20
391.0377208912
 30
0.0
 11
1088.2122654485
 21
396.5584857756
 31
0.0
  0
LINE
  5
AA
330
1F
100
AcDbEntity
  8
0
  6
Continuous
 62
     7
370
    25
100
AcDbLine
 10
1074.2122654485
 20
396.5584857756
 30
0.0
 11
1074.2122654485
 21
391.3675013035
 31
0.0
  0
LINE
  5
AB
330
1F
100
AcDbEntity
  8
0
  6
Continuous
 62
     7
370
    25
100
AcDbLine
 10
733.2122654485
 20
106.5584857756
 30
0.0
 11
733.2122654485
 21
393.0584857756
 31
0.0
  0
LINE
  5
AC
330
1F
100
AcDbEntity
  8
0
  6
Continuous
 62
     7
370
    25
100
AcDbLine
 10
733.2122654485
 20
-179.9415142244
 30
0.0
 11
733.2122654485
 21
106.5584857756
 31
0.0
  0
SPLINE
  5
AD
330
1F
100
AcDbEntity
  8
0
  6
Continuous
 62
     7
370
    25
100
AcDbSpline
210
0.0
220
0.0
230
1.0
 70
     8
 71
     3
 72
    18
 73
    14
 74
     0
 42
0.00000001
 43
0.00000001
 40
0.0
 40
0.0
 40
0.0
 40
0.0
 40
0.0160383711914271
 40
0.1241836484502475
 40
0.2328709513828715
 40
0.3414567413863313
 40
0.4492149507784009
 40
0.5558431107763893
 40
0.661720514505051
 40
0.7676586947549296
 40
0.8743704934752448
 40
0.9820728294819107
 40
1.0
 40
1.0
 40
1.0
 40
1.0
 10
752.1622081348564
 20
391.3664055647477
 30
0.0
 10
752.1781909664287
 20
391.3529147310977
 30
0.0
 10
752.3019445766621
 20
391.2484564339736
 30
0.0
 10
751.7658918342986
 20
391.0148355193184
 30
0.0
 10
750.5481058666852
 20
390.7096953952424
 30
0.0
 10
748.6424072016235
 20
390.4499586770867
 30
0.0
 10
746.371232265202
 20
390.2812884347857
 30
0.0
 10
743.9772333974388
 20
390.2267203427339
 30
0.0
 10
741.7419405400702
 20
390.2903318677991
 30
0.0
 10
739.8757703183239
 20
390.4579632725594
 30
0.0
 10
738.6679297519061
 20
390.7020360153866
 30
0.0
 10
738.1270218089043
 20
390.9101167352678
 30
0.0
 10
738.2500743411111
 20
391.0218066263302
 30
0.0
 10
738.2676337806774
 20
391.0377446314821
 30
0.0
  0
LINE
  5
AE
330
1F
100
AcDbEntity
  8
0
  6
Continuous
 62
     7
370
    25
100
AcDbLine
 10
1093.2122654485
 20
106.5584857756
 30
0.0
 11
1093.2122654485
 21
393.0584857756
 31
0.0
  0
LINE
  5
AF
330
1F
100
AcDbEntity
  8
0
  6
Continuous
 62
     7
370
    25
100
AcDbLine
 10
1093.2122654485
 20
-179.9415142244
 30
0.0
 11
1093.2122654485
 21
106.5584857756
 31
0.0
  0
SPLINE
  5
B0
330
1F
100
AcDbEntity
  8
0
  6
Continuous
 62
     7
370
    25
100
AcDbSpline
210
0.0
220
0.0
230
1.0
 70
     8
 71
     3
 72
    18
 73
    14
 74
     0
 42
0.00000001
 43
0.00000001
 40
0.0
 40
0.0
 40
0.0
 40
0.0
 40
0.0248830511269293
 40
0.1333809234946039
 40
0.2417553493994555
 40
0.3494336527660703
 40
0.4561031935343434
 40
0.5620144034798599
 40
0.6679098463530269
 40
0.774577662705123
 40
0.8823571094747806
 40
0.9909439565413608
 40
1.0
 40
1.0
 40
1.0
 40
1.0
 10
1088.14144666067
 20
391.0377208912416
 30
0.0
 10
1088.163004391882
 20
391.0155395428126
 30
0.0
 10
1088.278560562338
 20
390.8966405893556
 30
0.0
 10
1087.692666928565
 20
390.6816684918025
 30
0.0
 10
1086.407375391865
 20
390.4389829920299
 30
0.0
 10
1084.468408817215
 20
390.2782074651606
 30
0.0
 10
1082.19103473469
 20
390.226824466885
 30
0.0
 10
1079.812385854831
 20
390.2940027510313
 30
0.0
 10
1077.601913309671
 20
390.4698682220062
 30
0.0
 10
1075.763309293348
 20
390.7310598640748
 30
0.0
 10
1074.607343702801
 20
391.0349548232894
 30
0.0
 10
1074.101848424352
 20
391.2619631850513
 30
0.0
 10
1074.232976464756
 20
391.3599577689632
 30
0.0
 10
1074.243070582872
 20
391.3675013035248
 30
0.0
  0
LINE
  5
B1
330
1F
100
AcDbEntity
  8
0
  6
Continuous
 62
     7
370
    25
100
AcDbLine
 10
752.2122654485
 20
396.5584857756
 30
0.0
 11
738.2122654485
 21
396.5584857756
 31
0.0
  0
LINE
  5
B2
330
1F
100
AcDbEntity
  8
0
  6
Continuous
 62
     7
370
    25
100
AcDbLine
 10
1088.2122654485
 20
396.5584857756
 30
0.0
 11
1074.2122654485
 21
396.5584857756
 31
0.0
  0
LINE
  5
B3
330
1F
100
AcDbEntity
  8
0
  6
Continuous
 62
     1
370
    25
100
AcDbLine
 10
890.7122654485
 20
106.5584857756
 30
0.0
 11
890.7122654485
 21
395.0584857756
 31
0.0
  0
LINE
  5
B4
330
1F
100
AcDbEntity
  8
0
  6
Continuous
 62
     1
370
    25
100
AcDbLine
 10
890.7122654485
 20
-181.9415142244
 30
0.0
 11
890.7122654485
 21
106.5584857756
 31
0.0
  0
LINE
  5
B5
330
1F
100
AcDbEntity
  8
0
  6
Continuous
 62
     1
370
    25
100
AcDbLine
 10
935.7122654485
 20
106.5584857756
 30
0.0
 11
935.7122654485
 21
395.0584857756
 31
0.0
  0
LINE
  5
B6
330
1F
100
AcDbEntity
  8
0
  6
Continuous
 62
     1
370
    25
100
AcDbLine
 10
935.7122654485
 20
-181.9415142244
 30
0.0
 11
935.7122654485
 21
106.5584857756
 31
0.0
  0
ARC
  5
B7
330
1F
100
AcDbEntity
  8
0
  6
Continuous
 62
     7
370
    25
100
AcDbCircle
 10
6055.3331251987
 20
748.6952708413
 30
0.0
 40
6202.562500000019
100
AcDbArc
 50
180.0
 51
181.4550527027
  0
ARC
  5
B8
330
1F
100
AcDbEntity
  8
0
  6
Continuous
 62
     7
370
    25
100
AcDbCircle
 10
-5772.7918748014
 20
748.6952708413
 30
0.0
 40
6202.56250000002
100
AcDbArc
 50
358.5449472973
 51
0.0
  0
LINE
  5
B9
330
1F
100
AcDbEntity
  8
0
  6
Continuous
 62
     7
370
    25
100
AcDbLine
 10
429.7706251986
 20
748.6952708413
 30
0.0
 11
429.7706251986
 21
793.6952708413
 31
0.0
  0
LINE
  5
BA
330
1F
100
AcDbEntity
  8
0
  6
Continuous
 62
     7
370
    25
100
AcDbLine
 10
-147.2293748014
 20
793.6952708413
 30
0.0
 11
-147.2293748014
 21
748.6952708413
 31
0.0
  0
ARC
  5
BB
330
1F
100
AcDbEntity
  8
0
  6
Continuous
 62
     7
370
    25
100
AcDbCircle
 10
6055.3331251987
 20
793.6952708413
 30
0.0
 40
6202.562500000019
100
AcDbArc
 50
178.5449472973
 51
180.0
  0
ARC
  5
BC
330
1F
100
AcDbEntity
  8
0
  6
Continuous
 62
     7
370
    25
100
AcDbCircle
 10
-5772.7918748014
 20
793.6952708413
 30
0.0
 40
6202.56250000002
100
AcDbArc
 50
0.0
 51
1.4550527027
  0
LINE
  5
BD
330
1F
100
AcDbEntity
  8
0
  6
Continuous
 62
     7
370
    25
100
AcDbLine
 10
427.7706251986
 20
591.1952708413
 30
0.0
 11
-145.2293748014
 21
591.1952708413
 31
0.0
  0
LINE
  5
BE
330
1F
100
AcDbEntity
  8
0
  6
Continuous
 62
     7
370
    25
100
AcDbLine
 10
427.7706251986
 20
951.1952708413
 30
0.0
 11
-145.2293748014
 21
951.1952708413
 31
0.0
  0
LINE
  5
BF
330
1F
100
AcDbEntity
  8
0
  6
Continuous
 62
     1
370
    25
100
AcDbLine
 10
429.7706251986
 20
748.6952708413
 30
0.0
 11
-147.2293748014
 21
748.6952708413
 31
0.0
  0
LINE
  5
C0
330
1F
100
AcDbEntity
  8
0
  6
Continuous
 62
     1
370
    25
100
AcDbLine
 10
429.7706251986
 20
793.6952708413
 30
0.0
 11
-147.2293748014
 21
793.6952708413
 31
0.0
  0
ARC
  5
C1
330
1F
100
AcDbEntity
  8
0
  6
Continuous
 62
     7
370
    25
100
AcDbCircle
 10
-595.4062644516
 20
6020.6209857756
 30
0.0
 40
6202.56250000002
100
AcDbArc
 50
270.0
 51
271.4550527027
  0
LINE
  5
C2
330
1F
100
AcDbEntity
  8
0
  6
Continuous
 62
     7
370
    25
100
AcDbLine
 10
-437.9062644516
 20
393.0584857756
 30
0.0
 11
-442.9062644516
 21
393.1834731762
 31
0.0
  0
ARC
  5
C3
330
1F
100
AcDbEntity
  8
0
  6
Continuous
 62
     7
370
    25
100
AcDbCircle
 10
-595.4062644516
 20
-5807.5040142245
 30
0.0
 40
6202.56250000002
100
AcDbArc
 50
88.7205086518
 51
90.0
  0
LINE
  5
C4
330
1F
100
AcDbEntity
  8
0
  6
Continuous
 62
     7
370
    25
100
AcDbLine
 10
-595.4062644516
 20
395.0584857756
 30
0.0
 11
-640.4062644516
 21
395.0584857756
 31
0.0
  0
LINE
  5
C5
330
1F
100
AcDbEntity
  8
0
  6
Continuous
 62
     7
370
    25
100
AcDbLine
 10
-640.4062644516
 20
-181.9415142244
 30
0.0
 11
-595.4062644516
 21
-181.9415142244
 31
0.0
  0
ARC
  5
C6
330
1F
100
AcDbEntity
  8
0
  6
Continuous
 62
     7
370
    25
100
AcDbCircle
 10
-640.4062644516
 20
6020.6209857756
 30
0.0
 40
6202.56250000002
100
AcDbArc
 50
268.5449472973
 51
270.0
  0
ARC
  5
C7
330
1F
100
AcDbEntity
  8
0
  6
Continuous
 62
     7
370
    25
100
AcDbCircle
 10
-640.4062644516
 20
-5807.5040142245
 30
0.0
 40
6202.56250000002
100
AcDbArc
 50
90.0
 51
91.2794913482
  0
LINE
  5
C8
330
1F
100
AcDbEntity
  8
0
  6
Continuous
 62
     7
370
    25
100
AcDbLine
 10
-792.9062644516
 20
393.1834731762
 30
0.0
 11
-797.9062644516
 21
393.0584857756
 31
0.0
  0
LINE
  5
C9
330
1F
100
AcDbEntity
  8
0
  6
Continuous
 62
     7
370
    25
100
AcDbLine
 10
-442.9062644516
 20
391.0393227528
 30
0.0
 11
-442.9062644516
 21
396.5584857756
 31
0.0
  0
LINE
  5
CA
330
1F
100
AcDbEntity
  8
0
  6
Continuous
 62
     7
370
    25
100
AcDbLine
 10
-456.9062644516
 20
396.5584857756
 30
0.0
 11
-456.9062644516
 21
391.3682566703
 31
0.0
  0
LINE
  5
CB
330
1F
100
AcDbEntity
  8
0
  6
Continuous
 62
     7
370
    25
100
AcDbLine
 10
-778.9062644516
 20
391.3677552558
 30
0.0
 11
-778.9062644516
 21
396.5584857756
 31
0.0
  0
LINE
  5
CC
330
1F
100
AcDbEntity
  8
0
  6
Continuous
 62
     7
370
    25
100
AcDbLine
 10
-792.9062644516
 20
396.5584857756
 30
0.0
 11
-792.9062644516
 21
391.0392624805
 31
0.0
  0
LINE
  5
CD
330
1F
100
AcDbEntity
  8
0
  6
Continuous
 62
     7
370
    25
100
AcDbLine
 10
-437.9062644516
 20
393.0584857756
 30
0.0
 11
-437.9062644516
 21
-179.9415142244
 31
0.0
  0
SPLINE
  5
CE
330
1F
100
AcDbEntity
  8
0
  6
Continuous
 62
     7
370
    25
100
AcDbSpline
210
0.0
220
0.0
230
1.0
 70
     8
 71
     3
 72
     9
 73
     5
 74
     0
 42
0.00000001
 43
0.00000001
 40
0.0
 40
0.0
 40
0.0
 40
0.0
 40
0.5296592809191609
 40
1.0
 40
1.0
 40
1.0
 40
1.0
 10
-455.5128972397334
 20
390.791507762056
 30
0.0
 10
-455.9394675094027
 20
390.8943401265373
 30
0.0
 10
-456.74483481823
 20
391.0884882670228
 30
0.0
 10
-456.8274184841149
 20
391.2787628065789
 30
0.0
 10
-456.8662609449115
 20
391.3682566703365
 30
0.0
  0
SPLINE
  5
CF
330
1F
100
AcDbEntity
  8
0
  6
Continuous
 62
     7
370
    25
100
AcDbSpline
210
0.0
220
0.0
230
1.0
 70
     8
 71
     3
 72
    15
 73
    11
 74
     0
 42
0.00000001
 43
0.00000001
 40
0.0
 40
0.0
 40
0.0
 40
0.0
 40
0.1094017130699012
 40
0.2458172132931711
 40
0.3816561873239289
 40
0.5163237596548406
 40
0.6498083089920339
 40
0.782825574537777
 40
0.9164261974676973
 40
1.0
 40
1.0
 40
1.0
 40
1.0
 10
-442.9698189617409
 20
391.039322752799
 30
0.0
 10
-442.9943945037092
 20
390.9608421043154
 30
0.0
 10
-443.0496138514899
 20
390.7845021388217
 30
0.0
 10
-444.079892206245
 20
390.535221771133
 30
0.0
 10
-445.7589916255945
 20
390.3349844978397
 30
0.0
 10
-447.9231252370262
 20
390.2344817935527
 30
0.0
 10
-450.2918088070521
 20
390.2507727127274
 30
0.0
 10
-452.5990170682978
 20
390.3827064641204
 30
0.0
 10
-454.3835230128969
 20
390.5804671648314
 30
0.0
 10
-455.1990596512359
 20
390.7328624782039
 30
0.0
 10
-455.5128972397334
 20
390.791507762056
 30
0.0
  0
LINE
  5
D0
330
1F
100
AcDbEntity
  8
0
  6
Continuous
 62
     7
370
    25
100
AcDbLine
 10
-797.9062644516
 20
393.0584857756
 30
0.0
 11
-797.9062644516
 21
-179.9415142244
 31
0.0
  0
SPLINE
  5
D1
330
1F
100
AcDbEntity
  8
0
  6
Continuous
 62
     7
370
    25
100
AcDbSpline
210
0.0
220
0.0
230
1.0
 70
     8
 71
     3
 72
     9
 73
     5
 74
     0
 42
0.00000001
 43
0.00000001
 40
0.0
 40
0.0
 40
0.0
 40
0.0
 40
0.5404603039926946
 40
0.9999999999999999
 40
0.9999999999999999
 40
0.9999999999999999
 40
0.9999999999999999
 10
-791.5752098082753
 20
390.536042637837
 30
0.0
 10
-791.9918743418331
 20
390.6194008180703
 30
0.0
 10
-792.7628181659765
 20
390.7736363458557
 30
0.0
 10
-792.8263219179017
 20
390.9556294327259
 30
0.0
 10
-792.8555044127568
 20
391.0392624805417
 30
0.0
  0
SPLINE
  5
D2
330
1F
100
AcDbEntity
  8
0
  6
Continuous
 62
     7
370
    25
100
AcDbSpline
210
0.0
220
0.0
230
1.0
 70
     8
 71
     3
 72
    15
 73
    11
 74
     0
 42
0.00000001
 43
0.00000001
 40
0.0
 40
0.0
 40
0.0
 40
0.0
 40
0.1135631654225824
 40
0.249198505213618
 40
0.3849930392971866
 40
0.520006177129683
 40
0.6536363757587363
 40
0.7860986008852175
 40
0.9183049605739323
 40
1.0
 40
1.0
 40
1.0
 40
1.0
 10
-778.9589627046481
 20
391.3677552557575
 30
0.0
 10
-778.9925030867033
 20
391.2843258000392
 30
0.0
 10
-779.0661027705562
 20
391.1012515120125
 30
0.0
 10
-780.1286871039229
 20
390.8004541383076
 30
0.0
 10
-781.8327069874184
 20
390.5222652215794
 30
0.0
 10
-784.0210104473636
 20
390.3219179245142
 30
0.0
 10
-786.4073739385668
 20
390.230590160978
 30
0.0
 10
-788.7135048828725
 20
390.2591957267095
 30
0.0
 10
-790.4757018666312
 20
390.3770487871742
 30
0.0
 10
-791.2713348864891
 20
390.4921009416429
 30
0.0
 10
-791.5752098082753
 20
390.536042637837
 30
0.0
  0
LINE
  5
D3
330
1F
100
AcDbEntity
  8
0
  6
Continuous
 62
     7
370
    25
100
AcDbLine
 10
-442.9062644516
 20
396.5584857756
 30
0.0
 11
-456.9062644516
 21
396.5584857756
 31
0.0
  0
LINE
  5
D4
330
1F
100
AcDbEntity
  8
0
  6
Continuous
 62
     7
370
    25
100
AcDbLine
 10
-778.9062644516
 20
396.5584857756
 30
0.0
 11
-792.9062644516
 21
396.5584857756
 31
0.0
  0
LINE
  5
D5
330
1F
100
AcDbEntity
  8
0
  6
Continuous
 62
     1
370
    25
100
AcDbLine
 10
-595.4062644516
 20
395.0584857756
 30
0.0
 11
-595.4062644516
 21
-181.9415142244
 31
0.0
  0
LINE
  5
D6
330
1F
100
AcDbEntity
  8
0
  6
Continuous
 62
     1
370
    25
100
AcDbLine
 10
-640.4062644516
 20
395.0584857756
 30
0.0
 11
-640.4062644516
 21
-181.9415142244
 31
0.0
  0
ARC
  5
D7
330
1F
100
AcDbEntity
  8
0
  6
Continuous
 62
     7
370
    25
100
AcDbCircle
 10
-5772.7918748014
 20
-578.6697183242
 30
0.0
 40
6202.56250000002
100
AcDbArc
 50
0.0
 51
1.4550527027
  0
ARC
  5
D8
330
1F
100
AcDbEntity
  8
0
  6
Continuous
 62
     7
370
    25
100
AcDbCircle
 10
6055.3331251987
 20
-578.6697183242
 30
0.0
 40
6202.562500000019
100
AcDbArc
 50
178.5449472973
 51
180.0
  0
LINE
  5
D9
330
1F
100
AcDbEntity
  8
0
  6
Continuous
 62
     7
370
    25
100
AcDbLine
 10
-147.2293748014
 20
-578.6697183242
 30
0.0
 11
-147.2293748014
 21
-623.6697183242
 31
0.0
  0
LINE
  5
DA
330
1F
100
AcDbEntity
  8
0
  6
Continuous
 62
     7
370
    25
100
AcDbLine
 10
429.7706251986
 20
-623.6697183242
 30
0.0
 11
429.7706251986
 21
-578.6697183242
 31
0.0
  0
ARC
  5
DB
330
1F
100
AcDbEntity
  8
0
  6
Continuous
 62
     7
370
    25
100
AcDbCircle
 10
-5772.7918748014
 20
-623.6697183242
 30
0.0
 40
6202.56250000002
100
AcDbArc
 50
358.5449472973
 51
0.0
  0
ARC
  5
DC
330
1F
100
AcDbEntity
  8
0
  6
Continuous
 62
     7
370
    25
100
AcDbCircle
 10
6055.3331251987
 20
-623.6697183242
 30
0.0
 40
6202.562500000019
100
AcDbArc
 50
180.0
 51
181.4550527027
  0
CIRCLE
  5
DD
330
1F
100
AcDbEntity
  8
0
  6
Continuous
 62
     7
370
    25
100
AcDbCircle
 10
176.2706251986
 20
-433.1697183242
 30
0.0
 40
7.0
  0
CIRCLE
  5
DE
330
1F
100
AcDbEntity
  8
0
  6
Continuous
 62
     7
370
    25
100
AcDbCircle
 10
176.2706251986
 20
-433.1697183242
 30
0.0
 40
5.0
  0
CIRCLE
  5
DF
330
1F
100
AcDbEntity
  8
0
  6
Continuous
 62
     7
370
    25
100
AcDbCircle
 10
106.2706251986
 20
-433.1697183242
 30
0.0
 40
5.0
  0
CIRCLE
  5
E0
330
1F
100
AcDbEntity
  8
0
  6
Continuous
 62
     7
370
    25
100
AcDbCircle
 10
106.2706251986
 20
-433.1697183242
 30
0.0
 40
7.0
  0
CIRCLE
  5
E1
330
1F
100
AcDbEntity
  8
0
  6
Continuous
 62
     7
370
    25
100
AcDbCircle
 10
176.2706251986
 20
-769.1697183242
 30
0.0
 40
7.0
  0
CIRCLE
  5
E2
330
1F
100
AcDbEntity
  8
0
  6
Continuous
 62
     7
370
    25
100
AcDbCircle
 10
176.2706251986
 20
-769.1697183242
 30
0.0
 40
5.0
  0
CIRCLE
  5
E3
330
1F
100
AcDbEntity
  8
0
  6
Continuous
 62
     7
370
    25
100
AcDbCircle
 10
106.2706251986
 20
-769.1697183242
 30
0.0
 40
5.0
  0
CIRCLE
  5
E4
330
1F
100
AcDbEntity
  8
0
  6
Continuous
 62
     7
370
    25
100
AcDbCircle
 10
106.2706251986
 20
-769.1697183242
 30
0.0
 40
7.0
  0
LINE
  5
E5
330
1F
100
AcDbEntity
  8
0
  6
Continuous
 62
     7
370
    25
100
AcDbLine
 10
-145.2293748014
 20
-421.1697183242
 30
0.0
 11
427.7706251986
 21
-421.1697183242
 31
0.0
  0
LINE
  5
E6
330
1F
100
AcDbEntity
  8
0
  6
Continuous
 62
     7
370
    25
100
AcDbLine
 10
-145.2293748014
 20
-781.1697183242
 30
0.0
 11
427.7706251986
 21
-781.1697183242
 31
0.0
  0
LINE
  5
E7
330
1F
100
AcDbEntity
  8
0
  6
Continuous
 62
     1
370
    25
100
AcDbLine
 10
-147.2293748014
 20
-578.6697183242
 30
0.0
 11
429.7706251986
 21
-578.6697183242
 31
0.0
  0
LINE
  5
E8
330
1F
100
AcDbEntity
  8
0
  6
Continuous
 62
     1
370
    25
100
AcDbLine
 10
-147.2293748014
 20
-623.6697183242
 30
0.0
 11
429.7706251986
 21
-623.6697183242
 31
0.0
  0
INSERT
  5
F4
330
1F
100
AcDbEntity
  8
FORMAT
 62
     7
100
AcDbBlockReference
  2
SW_CENTERMARKSYMBOL_1
 10
141.2706251986
 20
-463.1697183242
 30
0.0
  0
INSERT
  5
100
330
1F
100
AcDbEntity
  8
FORMAT
 62
     7
100
AcDbBlockReference
  2
SW_CENTERMARKSYMBOL_2
 10
141.2706251986
 20
-739.1697183242
 30
0.0
  0
SPLINE
  5
101
330
1F
100
AcDbEntity
  8
0
  6
Continuous
 62
     7
370
    25
100
AcDbSpline
210
0.0
220
0.0
230
1.0
 70
     8
 71
     3
 72
    11
 73
     7
 74
     0
 42
0.00000001
 43
0.00000001
 40
0.0
 40
0.0
 40
0.0
 40
0.0
 40
0.2361868809281604
 40
0.5139518415627898
 40
0.7916725605941957
 40
1.0
 40
1.0
 40
1.0
 40
1.0
 10
755.8099025305028
 20
-362.6888740668601
 30
0.0
 10
746.8437008855292
 20
-367.8804668596532
 30
0.0
 10
727.3328972831094
 20
-379.1775747515672
 30
0.0
 10
697.4784542409436
 20
-396.9168355859983
 30
0.0
 10
668.7913672376395
 20
-414.2229610779666
 30
0.0
 10
650.6652711338514
 20
-425.4388803106751
 30
0.0
 10
642.8961578841123
 20
-430.2461894091095
 30
0.0
  0
SPLINE
  5
102
330
1F
100
AcDbEntity
  8
0
  6
Continuous
 62
     7
370
    25
100
AcDbSpline
210
0.0
220
0.0
230
1.0
 70
     8
 71
     3
 72
    12
 73
     8
 74
     0
 42
0.00000001
 43
0.00000001
 40
0.0
 40
0.0
 40
0.0
 40
0.0
 40
0.1249227746346239
 40
0.4027523593778434
 40
0.6805778508804816
 40
0.9583899408902277
 40
0.9999999999999999
 40
0.9999999999999999
 40
0.9999999999999999
 40
0.9999999999999999
 10
929.2898858199022
 20
-926.3540196366309
 30
0.0
 10
934.1214079613741
 20
-923.7715592434507
 30
0.0
 10
949.6982869376496
 20
-915.4456793596969
 30
0.0
 10
975.8689497873455
 20
-901.0831623280046
 30
0.0
 10
1007.784368303298
 20
-883.2496851673459
 30
0.0
 10
1030.578658974916
 20
-870.3303850645665
 30
0.0
 10
1042.68923087361
 20
-863.282101596732
 30
0.0
 10
1044.266834724648
 20
-862.3639451929653
 30
0.0
  0
LINE
  5
103
330
1F
100
AcDbEntity
  8
0
  6
Continuous
 62
     7
370
    25
100
AcDbLine
 10
787.6198818503
 20
-344.3021388905
 30
0.0
 11
755.8000766969
 21
-362.6713214065
 31
0.0
  0
LINE
  5
104
330
1F
100
AcDbEntity
  8
0
  6
Continuous
 62
     7
370
    25
100
AcDbLine
 10
1044.2766310624
 20
-862.3815150001
 30
0.0
 11
1076.0964362158
 21
-844.0123324841
 31
0.0
  0
SPLINE
  5
105
330
1F
100
AcDbEntity
  8
0
  6
Continuous
 62
     7
370
    25
100
AcDbSpline
210
0.0
220
0.0
230
1.0
 70
     8
 71
     3
 72
    12
 73
     8
 74
     0
 42
0.00000001
 43
0.00000001
 40
0.0
 40
0.0
 40
0.0
 40
0.0
 40
0.1249233649928158
 40
0.4027528446117136
 40
0.6805782309913179
 40
0.9583902158824807
 40
1.0
 40
1.0
 40
1.0
 40
1.0
 10
902.6067010315293
 20
-280.3295946247967
 30
0.0
 10
897.7751542196072
 20
-282.9120681807508
 30
0.0
 10
882.1982505516008
 20
-291.2379611860736
 30
0.0
 10
856.0275631012399
 20
-305.6004915167837
 30
0.0
 10
824.1121446299612
 20
-323.4339687600358
 30
0.0
 10
801.3178637961531
 20
-336.3532631561051
 30
0.0
 10
789.2073017082038
 20
-343.4015408717116
 30
0.0
 10
787.6297076838978
 20
-344.3196915508494
 30
0.0
  0
SPLINE
  5
106
330
1F
100
AcDbEntity
  8
0
  6
Continuous
 62
     7
370
    25
100
AcDbSpline
210
0.0
220
0.0
230
1.0
 70
     8
 71
     3
 72
    11
 73
     7
 74
     0
 42
0.00000001
 43
0.00000001
 40
0.0
 40
0.0
 40
0.0
 40
0.0
 40
0.2361853924738622
 40
0.5139489075205245
 40
0.7916681811953393
 40
1.0
 40
1.0
 40
1.0
 40
1.0
 10
1076.086639878041
 20
-843.9947626769542
 30
0.0
 10
1085.052831667079
 20
-838.8031755601803
 30
0.0
 10
1104.563625397073
 20
-827.5060733176749
 30
0.0
 10
1134.418058803329
 20
-809.7668185119516
 30
0.0
 10
1163.105350419936
 20
-792.4605682993553
 30
0.0
 10
1181.231650018794
 20
-781.2445225799349
 30
0.0
 10
1189.000966911725
 20
-776.4370872286364
 30
0.0
  0
LINE
  5
107
330
1F
100
AcDbEntity
  8
0
  6
Continuous
 62
     7
370
    25
100
AcDbLine
 10
828.9030545586
 20
-454.2120050279
 30
0.0
 11
828.9030545586
 21
-449.4104148484
 31
0.0
  0
LINE
  5
108
330
1F
100
AcDbEntity
  8
0
  6
Continuous
 62
     7
370
    25
100
AcDbLine
 10
814.9030545586
 20
-449.4104148484
 30
0.0
 11
814.9030545586
 21
-453.4183775555
 31
0.0
  0
LINE
  5
109
330
1F
100
AcDbEntity
  8
0
  6
Continuous
 62
     7
370
    25
100
AcDbLine
 10
779.4055798755
 20
-424.6580923919
 30
0.0
 11
779.4055798755
 21
-420.8361309346
 31
0.0
  0
LINE
  5
10A
330
1F
100
AcDbEntity
  8
0
  6
Continuous
 62
     7
370
    25
100
AcDbLine
 10
765.4055798755
 20
-420.8361309346
 30
0.0
 11
765.4055798755
 21
-425.8323313663
 31
0.0
  0
LINE
  5
10B
330
1F
100
AcDbEntity
  8
0
  6
Continuous
 62
     7
370
    25
100
AcDbLine
 10
1066.4909330373
 20
-317.2443534844
 30
0.0
 11
1066.4909330373
 21
-312.2538520622
 31
0.0
  0
LINE
  5
10C
330
1F
100
AcDbEntity
  8
0
  6
Continuous
 62
     7
370
    25
100
AcDbLine
 10
1052.4909330373
 20
-312.2538520622
 30
0.0
 11
1052.4909330373
 21
-316.0731548481
 31
0.0
  0
LINE
  5
10D
330
1F
100
AcDbEntity
  8
0
  6
Continuous
 62
     7
370
    25
100
AcDbLine
 10
1016.9934583542
 20
-287.6899186642
 30
0.0
 11
1016.9934583542
 21
-283.6795681484
 31
0.0
  0
LINE
  5
10E
330
1F
100
AcDbEntity
  8
0
  6
Continuous
 62
     7
370
    25
100
AcDbLine
 10
1002.9934583542
 20
-283.6795681484
 30
0.0
 11
1002.9934583542
 21
-288.4831499068
 31
0.0
  0
LWPOLYLINE
  5
10F
330
1F
100
AcDbEntity
  8
0
  6
Continuous
 62
     7
370
    25
100
AcDbPolyline
 90
      180
 70
   128
 43
0.0
 10
586.0829430329
 20
-559.8680949907
 10
586.2077355989
 20
-551.7301926304
 10
586.5819595533
 20
-543.7463985582
 10
587.2051538539
 20
-535.9265487716
 10
588.076550728
 20
-528.2802772895
 10
589.1950766188
 20
-520.817004283
 10
590.5593535076
 20
-513.5459244701
 10
592.1677006115
 20
-506.4759957877
 10
594.0181364543
 20
-499.6159283551
 10
596.1083813075
 20
-492.974173744
 10
598.4358599992
 20
-486.5589145653
 10
600.9977050864
 20
-480.3780543887
 10
603.7907603876
 20
-474.4392080056
 10
606.8115848717
 20
-468.7496920472
 10
610.0564568968
 20
-463.316515971
 10
613.5213787955
 20
-458.1463734249
 10
617.2020818001
 20
-453.2456340006
 10
621.0940313014
 20
-448.6203353865
 10
625.1924324356
 20
-444.2761759292
 10
629.4922359913
 20
-440.218507613
 10
633.9881446305
 20
-436.4523294667
 10
638.6746194143
 20
-432.9822814044
 10
643.5458866276
 20
-429.8126385092
 10
648.5959448915
 20
-426.9473057666
 10
653.8185725575
 20
-424.3898132534
 10
659.2073353725
 20
-422.1433117884
 10
664.7555944055
 20
-420.2105690512
 10
670.4565142269
 20
-418.5939661719
 10
676.3030713299
 20
-417.2954947978
 10
682.288062783
 20
-416.3167546396
 10
688.4041151044
 20
-415.6589515007
 10
694.6436933458
 20
-415.3228957915
 10
700.9991103755
 20
-415.3090015311
 10
707.4625363492
 20
-415.6172858372
 10
714.0260083558
 20
-416.247368905
 10
720.6814402281
 20
-417.1984744749
 10
727.4206325046
 20
-418.4694307894
 10
734.2352825317
 20
-420.058672036
 10
741.1169946918
 20
-421.964240277
 10
748.0572907473
 20
-424.183787861
 10
755.0476202855
 20
-426.7145803156
 10
762.0793712527
 20
-429.5534997163
 10
769.143880564
 20
-432.6970485273
 10
776.2324447766
 20
-436.1413539111
 10
783.3363308121
 20
-439.8821724993
 10
790.4467867155
 20
-443.9148956206
 10
797.5550524381
 20
-448.2345549788
 10
804.6523706292
 20
-452.8358287735
 10
811.7299974255
 20
-457.7130482565
 10
818.7792132235
 20
-462.860204716
 10
825.7913334219
 20
-468.2709568789
 10
832.7577191208
 20
-473.9386387235
 10
839.6697877651
 20
-479.8562676919
 10
846.5190237183
 20
-486.0165532924
 10
853.2969887532
 20
-492.4119060818
 10
859.9953324482
 20
-499.0344470148
 10
866.6058024746
 20
-505.8760171514
 10
873.1202547638
 20
-512.9281877089
 10
879.5306635409
 20
-520.1822704457
 10
885.8291312115
 20
-527.6293283652
 10
892.0078980927
 20
-535.2601867265
 10
898.0593519721
 20
-543.0654443472
 10
903.9760374865
 20
-551.035485186
 10
909.7506653066
 20
-559.1604901892
 10
915.3761211174
 20
-567.4304493882
 10
920.8454743835
 20
-575.8351742314
 10
926.1519868868
 20
-584.3643101365
 10
931.2891210284
 20
-593.0073492474
 10
936.2505478827
 20
-601.7536433798
 10
941.0301549947
 20
-610.5924171397
 10
945.6220539105
 20
-619.5127811985
 10
950.0205874317
 20
-628.5037457088
 10
954.2203365854
 20
-637.5542338439
 10
958.2161273
 20
-646.6530954441
 10
962.0030367797
 20
-655.7891207538
 10
965.5763995696
 20
-664.951054232
 10
968.9318133031
 20
-674.1276084189
 10
972.065144126
 20
-683.3074778421
 10
974.9725317891
 20
-692.4793529447
 10
977.6503944044
 20
-701.631934019
 10
980.0954328573
 20
-710.7539451272
 10
982.3046348718
 20
-719.8341479937
 10
984.2752787212
 20
-728.8613558505
 10
986.0049365814
 20
-737.8244472191
 10
987.4914775218
 20
-746.7123796122
 10
988.7330701309
 20
-755.5142031382
 10
989.7281847722
 20
-764.2190739911
 10
990.4755954692
 20
-772.81626781
 10
990.9743814154
 20
-781.2951928919
 10
991.2239281086
 20
-789.6454032402
 10
991.2239281086
 20
-797.8566114342
 10
990.9743814154
 20
-805.9187013032
 10
990.4755954692
 20
-813.8217403898
 10
989.7281847722
 20
-821.5559921863
 10
988.7330701309
 20
-829.11192813
 10
987.4914775218
 20
-836.4802393427
 10
986.0049365814
 20
-843.651848099
 10
984.2752787212
 20
-850.6179190101
 10
982.3046348718
 20
-857.3698699085
 10
980.0954328573
 20
-863.899382422
 10
977.6503944044
 20
-870.1984122213
 10
974.9725317891
 20
-876.2591989307
 10
972.065144126
 20
-882.0742756889
 10
968.9318133031
 20
-887.6364783482
 10
965.5763995696
 20
-892.9389543004
 10
962.0030367797
 20
-897.9751709199
 10
958.2161273
 20
-902.7389236107
 10
954.2203365854
 20
-907.2243434517
 10
950.0205874317
 20
-911.4259044262
 10
945.6220539105
 20
-915.3384302306
 10
941.0301549947
 20
-918.957100651
 10
936.2505478827
 20
-922.2774575021
 10
931.2891210284
 20
-925.2954101198
 10
926.1519868868
 20
-928.0072404002
 10
920.8454743835
 20
-930.4096073809
 10
915.3761211174
 20
-932.4995513569
 10
909.7506653066
 20
-934.2744975269
 10
903.9760374865
 20
-935.7322591654
 10
898.0593519721
 20
-936.8710403167
 10
892.0078980927
 20
-937.6894380077
 10
885.8291312115
 20
-938.1864439763
 10
879.5306635409
 20
-938.3614459133
 10
873.1202547638
 20
-938.2142282173
 10
866.6058024746
 20
-937.7449722596
 10
859.9953324481
 20
-936.9542561616
 10
853.2969887532
 20
-935.8430540817
 10
846.5190237183
 20
-934.4127350159
 10
839.6697877651
 20
-932.6650611106
 10
832.7577191207
 20
-930.602185492
 10
825.7913334219
 20
-928.2266496133
 10
818.7792132235
 20
-925.5413801239
 10
811.7299974255
 20
-922.5496852633
 10
804.6523706292
 20
-919.2552507858
 10
797.5550524381
 20
-915.6621354195
 10
790.4467867155
 20
-911.774765866
 10
783.3363308121
 20
-907.5979313465
 10
776.2324447766
 20
-903.1367777021
 10
769.143880564
 20
-898.3968010534
 10
762.0793712527
 20
-893.3838410297
 10
755.0476202855
 20
-888.1040735748
 10
748.0572907473
 20
-882.5640033377
 10
741.1169946918
 20
-876.7704556595
 10
734.2352825317
 20
-870.7305681642
 10
727.4206325046
 20
-864.4517819653
 10
720.6814402281
 20
-857.9418324985
 10
714.0260083558
 20
-851.2087399915
 10
707.4625363492
 20
-844.2607995831
 10
700.9991103755
 20
-837.1065711041
 10
694.6436933458
 20
-829.7548685308
 10
688.4041151044
 20
-822.2147491269
 10
682.288062783
 20
-814.4955022848
 10
676.3030713299
 20
-806.606638081
 10
670.4565142269
 20
-798.5578755598
 10
664.7555944055
 20
-790.3591307594
 10
659.2073353725
 20
-782.0205044958
 10
653.8185725575
 20
-773.552269918
 10
648.5959448915
 20
-764.964859852
 10
643.5458866276
 20
-756.2688539473
 10
638.6746194143
 20
-747.4749656431
 10
633.9881446305
 20
-738.5940289693
 10
629.4922359913
 20
-729.6369851989
 10
625.1924324356
 20
-720.6148693686
 10
621.0940313014
 20
-711.5387966833
 10
617.2020818001
 20
-702.4199488229
 10
613.5213787955
 20
-693.2695601658
 10
610.0564568968
 20
-684.0989039487
 10
606.8115848717
 20
-674.9192783778
 10
603.7907603876
 20
-665.7419927093
 10
600.9977050864
 20
-656.578353317
 10
598.4358599992
 20
-647.4396497624
 10
596.1083813075
 20
-638.3371408859
 10
594.0181364543
 20
-629.2820409367
 10
592.1677006115
 20
-620.2855057561
 10
590.5593535076
 20
-611.358619034
 10
589.1950766188
 20
-602.5123786536
 10
588.076550728
 20
-593.7576831422
 10
587.2051538539
 20
-585.1053182445
 10
586.5819595533
 20
-576.565943634
 10
586.2077355989
 20
-568.150079781
 10
586.0829430329
 20
-559.8680949907
  0
SPLINE
  5
110
330
1F
100
AcDbEntity
  8
0
  6
Continuous
 62
     7
370
    25
100
AcDbSpline
210
0.0
220
0.0
230
1.0
 70
     8
 71
     3
 72
    13
 73
     9
 74
     0
 42
0.00000001
 43
0.00000001
 40
0.0
 40
0.0
 40
0.0
 40
0.0
 40
0.1962688738965286
 40
0.3925059217889795
 40
0.5895051490151064
 40
0.7871454990217452
 40
0.9845609782397963
 40
1.0
 40
1.0
 40
1.0
 40
1.0
 10
773.4611763965218
 20
-428.7608319285197
 30
0.0
 10
772.6679642615865
 20
-428.8419955276247
 30
0.0
 10
771.0816686151301
 20
-429.0043095647412
 30
0.0
 10
768.8294121095965
 20
-428.7173490881256
 30
0.0
 10
766.9654658659919
 20
-428.0766943369101
 30
0.0
 10
765.799717419681
 20
-427.1116481458115
 30
0.0
 10
765.2940829288864
 20
-426.309615720177
 30
0.0
 10
765.4250387401194
 20
-425.8668474693212
 30
0.0
 10
765.4345373864245
 20
-425.8347320635943
 30
0.0
  0
SPLINE
  5
111
330
1F
100
AcDbEntity
  8
0
  6
Continuous
 62
     7
370
    25
100
AcDbSpline
210
0.0
220
0.0
230
1.0
 70
     8
 71
     3
 72
    12
 73
     8
 74
     0
 42
0.00000001
 43
0.00000001
 40
0.0
 40
0.0
 40
0.0
 40
0.0
 40
0.1443895151882239
 40
0.3811959626524217
 40
0.617313583259516
 40
0.85350043838467
 40
1.0
 40
1.0
 40
1.0
 40
1.0
 10
779.310268777942
 20
-424.6561270357875
 30
0.0
 10
779.3193769332302
 20
-424.909068847906
 30
0.0
 10
779.3434229452864
 20
-425.5768486201416
 30
0.0
 10
778.4986362038755
 20
-426.6699874196205
 30
0.0
 10
776.971602976924
 20
-427.7392895471548
 30
0.0
 10
775.1684066043653
 20
-428.4398328230606
 30
0.0
 10
773.933805088995
 20
-428.6719667088198
 30
0.0
 10
773.4611763965218
 20
-428.7608319285197
 30
0.0
  0
SPLINE
  5
112
330
1F
100
AcDbEntity
  8
0
  6
Continuous
 62
     7
370
    25
100
AcDbSpline
210
0.0
220
0.0
230
1.0
 70
     8
 71
     3
 72
    12
 73
     8
 74
     0
 42
0.00000001
 43
0.00000001
 40
0.0
 40
0.0
 40
0.0
 40
0.0
 40
0.2401161076070725
 40
0.4801928609141431
 40
0.7210712711819578
 40
0.9618285587978633
 40
1.0
 40
1.0
 40
1.0
 40
1.0
 10
820.7982144254015
 20
-458.3183477996545
 30
0.0
 10
820.0298605621991
 20
-458.1335079966019
 30
0.0
 10
818.4932787666565
 20
-457.7638586851785
 30
0.0
 10
816.594631887728
 20
-456.6329113921223
 30
0.0
 10
815.362324246541
 20
-455.2355600053257
 30
0.0
 10
814.814982772638
 20
-454.0896019321331
 30
0.0
 10
814.9396891024084
 20
-453.5023382234631
 30
0.0
 10
814.956755183606
 20
-453.4219710908961
 30
0.0
  0
SPLINE
  5
113
330
1F
100
AcDbEntity
  8
0
  6
Continuous
 62
     7
370
    25
100
AcDbSpline
210
0.0
220
0.0
230
1.0
 70
     8
 71
     3
 72
    13
 73
     9
 74
     0
 42
0.00000001
 43
0.00000001
 40
0.0
 40
0.0
 40
0.0
 40
0.0
 40
0.1041351401568108
 40
0.3008053138782205
 40
0.495460995545348
 40
0.6884153201790747
 40
0.880996932194587
 40
1.0
 40
1.0
 40
1.0
 40
1.0
 10
828.8019731279887
 20
-454.21148169039
 30
0.0
 10
828.8194716429928
 20
-454.4937095222476
 30
0.0
 10
828.8700179455211
 20
-455.3089543226022
 30
0.0
 10
828.0777615121809
 20
-456.5403865386037
 30
0.0
 10
826.5872548818314
 20
-457.6874379430484
 30
0.0
 10
824.5474677660463
 20
-458.3733461059818
 30
0.0
 10
822.5220955615662
 20
-458.5455782776311
 30
0.0
 10
821.2746495884231
 20
-458.3811482953193
 30
0.0
 10
820.7982144254015
 20
-458.3183477996545
 30
0.0
  0
LWPOLYLINE
  5
114
330
1F
100
AcDbEntity
  8
0
  6
Continuous
 62
     7
370
    25
100
AcDbPolyline
 90
      168
 70
   128
 43
0.0
 10
611.8923405462
 20
-574.7675430315
 10
612.0174443683
 20
-567.1612206592
 10
612.3925787642
 20
-559.7101059842
 10
613.0172127732
 20
-552.4247452261
 10
613.8904622956
 20
-545.3154499983
 10
615.0110913444
 20
-538.3922827132
 10
616.3775137944
 20
-531.66504234
 10
617.9877956275
 20
-525.1432505351
 10
619.8396576699
 20
-518.8361381656
 10
621.9304788179
 20
-512.7526322437
 10
624.2572997479
 20
-506.9013432917
 10
626.8168271051
 20
-501.2905531549
 10
629.6054381648
 20
-495.9282032793
 10
632.6191859599
 20
-490.8218834715
 10
635.8538048673
 20
-485.9788211561
 10
639.3047166457
 20
-481.4058711463
 10
642.9670369154
 20
-477.1095059415
 10
646.8355820716
 20
-473.0958065661
 10
650.9048766211
 20
-469.3704539629
 10
655.1691609327
 20
-465.9387209518
 10
659.6223993887
 20
-462.8054647672
 10
664.258288928
 20
-459.9751201828
 10
669.0702679675
 20
-457.4516932349
 10
674.0515256889
 20
-455.2387555521
 10
679.1950116788
 20
-453.3394393003
 10
684.4934459082
 20
-451.7564327492
 10
689.9393290357
 20
-450.4919764677
 10
695.5249530228
 20
-449.5478601521
 10
701.2424120434
 20
-448.9254200935
 10
707.0836136736
 20
-448.6255372863
 10
713.0402903456
 20
-448.6486361809
 10
719.1040110498
 20
-448.9946840836
 10
725.2661932675
 20
-449.6631912022
 10
731.5181151189
 20
-450.6532113396
 10
737.8509277077
 20
-451.963343233
 10
744.2556676459
 20
-453.5917325373
 10
750.7232697402
 20
-455.5360744495
 10
757.2445798233
 20
-457.7936169709
 10
763.8103677098
 20
-460.3611648027
 10
770.4113402613
 20
-463.235083868
 10
777.0381545392
 20
-466.4113064558
 10
783.6814310289
 20
-469.885336978
 10
790.3317669156
 20
-473.6522583331
 10
796.9797493924
 20
-477.706738865
 10
803.6159689834
 20
-482.04303991
 10
810.2310328621
 20
-486.6550239188
 10
816.8155781451
 20
-491.5361631438
 10
823.3602851449
 20
-496.6795488783
 10
829.8558905607
 20
-502.0779012349
 10
836.2932005893
 20
-507.7235794495
 10
842.6631039382
 20
-513.6085926959
 10
848.9565847216
 20
-519.724611396
 10
855.1647352212
 20
-526.0629790092
 10
861.2787684942
 20
-532.6147242849
 10
867.2900308101
 20
-539.3705739603
 10
873.1900138993
 20
-546.3209658858
 10
878.9703669956
 20
-553.4560625587
 10
884.6229086555
 20
-560.7657650476
 10
890.1396383385
 20
-568.2397272859
 10
895.5127477304
 20
-575.867370716
 10
900.7346317959
 20
-583.6378992616
 10
905.797899542
 20
-591.5403146083
 10
910.6953844794
 20
-599.5634317709
 10
915.4201547658
 20
-607.6958949244
 10
919.9655230171
 20
-615.9261934764
 10
924.325055773
 20
-624.2426783598
 10
928.4925826024
 20
-632.6335785201
 10
932.4622048369
 20
-641.0870175766
 10
936.2283039203
 20
-649.5910306314
 10
939.7855493604
 20
-658.1335812052
 10
943.1289062742
 20
-666.7025782727
 10
946.2536425137
 20
-675.285893377
 10
949.1553353642
 20
-683.8713777952
 10
951.829877804
 20
-692.4468797343
 10
954.2734843174
 20
-701.0002615302
 10
956.4826962525
 20
-709.5194168275
 10
958.4543867169
 20
-717.9922877144
 10
960.1857650033
 20
-726.4068817897
 10
961.6743805393
 20
-734.7512891365
 10
962.9181263561
 20
-743.0136991793
 10
963.9152420705
 20
-751.1824174005
 10
964.6643163767
 20
-759.245881893
 10
965.1642890439
 20
-767.1926797245
 10
965.4144524167
 20
-775.0115630913
 10
965.4144524167
 20
-782.6914652384
 10
965.1642890439
 20
-790.221516123
 10
964.6643163767
 20
-797.5910578003
 10
963.9152420705
 20
-804.7896595079
 10
962.9181263561
 20
-811.8071324302
 10
961.6743805393
 20
-818.633544119
 10
960.1857650033
 20
-825.2592325519
 10
958.4543867169
 20
-831.6748198078
 10
956.4826962525
 20
-837.8712253404
 10
954.2734843174
 20
-843.8396788306
 10
951.829877804
 20
-849.5717325998
 10
949.1553353642
 20
-855.059273567
 10
946.2536425137
 20
-860.2945347315
 10
943.1289062742
 20
-865.2701061667
 10
939.7855493604
 20
-869.9789455074
 10
936.2283039203
 20
-874.4143879182
 10
932.4622048369
 20
-878.5701555264
 10
928.4925826024
 20
-882.4403663076
 10
924.325055773
 20
-886.0195424112
 10
919.9655230171
 20
-889.3026179137
 10
915.4201547658
 20
-892.2849459889
 10
910.6953844794
 20
-894.9623054849
 10
905.797899542
 20
-897.3309068986
 10
900.7346317959
 20
-899.3873977397
 10
895.5127477304
 20
-901.1288672753
 10
890.1396383385
 20
-902.55285065
 10
884.6229086555
 20
-903.6573323747
 10
878.9703669956
 20
-904.4407491789
 10
873.1900138993
 20
-904.9019922238
 10
867.29003081
 20
-905.0404086714
 10
861.2787684942
 20
-904.8558026087
 10
855.1647352212
 20
-904.3484353249
 10
848.9565847216
 20
-903.5190249417
 10
842.6631039382
 20
-902.3687453968
 10
836.2932005893
 20
-900.8992247821
 10
829.8558905607
 20
-899.1125430399
 10
823.3602851449
 20
-897.0112290183
 10
816.8155781451
 20
-894.5982568924
 10
810.2310328621
 20
-891.8770419543
 10
803.6159689834
 20
-888.8514357795
 10
796.9797493924
 20
-885.5257207753
 10
790.3317669156
 20
-881.9046041192
 10
783.6814310289
 20
-877.9932110971
 10
777.0381545392
 20
-873.7970778483
 10
770.4113402613
 20
-869.3221435302
 10
763.8103677098
 20
-864.5747419119
 10
757.2445798233
 20
-859.5615924096
 10
750.7232697402
 20
-854.2897905758
 10
744.2556676459
 20
-848.7667980565
 10
737.8509277077
 20
-843.0004320299
 10
731.5181151189
 20
-836.9988541425
 10
725.2661932675
 20
-830.7705589564
 10
719.1040110498
 20
-824.3243619272
 10
713.0402903456
 20
-817.6693869258
 10
707.0836136736
 20
-810.8150533252
 10
701.2424120434
 20
-803.7710626681
 10
695.5249530228
 20
-796.5473849357
 10
689.9393290357
 20
-789.1542444359
 10
684.4934459081
 20
-781.6021053323
 10
679.1950116788
 20
-773.9016568335
 10
674.0515256889
 20
-766.0637980631
 10
669.0702679675
 20
-758.0996226338
 10
664.258288928
 20
-750.0204029453
 10
659.6223993887
 20
-741.8375742296
 10
655.1691609327
 20
-733.5627183657
 10
650.9048766211
 20
-725.2075474868
 10
646.8355820716
 20
-716.7838874029
 10
642.9670369154
 20
-708.303660863
 10
639.3047166457
 20
-699.7788706793
 10
635.8538048673
 20
-691.2215827392
 10
632.6191859599
 20
-682.6439089268
 10
629.6054381648
 20
-674.0579899801
 10
626.8168271051
 20
-665.4759783074
 10
624.2572997479
 20
-656.9100207864
 10
621.9304788179
 20
-648.3722415722
 10
619.8396576699
 20
-639.8747249365
 10
617.9877956275
 20
-631.4294981639
 10
616.3775137944
 20
-623.0485145285
 10
615.0110913444
 20
-614.7436363755
 10
613.8904622956
 20
-606.5266183311
 10
613.0172127732
 20
-598.4090906656
 10
612.3925787643
 20
-590.4025428316
 10
612.0174443683
 20
-582.5183072023
 10
611.8923405462
 20
-574.7675430315
  0
LWPOLYLINE
  5
115
330
1F
100
AcDbEntity
  8
0
  6
Continuous
 62
     7
370
    25
100
AcDbPolyline
 90
       19
 70
   128
 43
0.0
 10
902.584985213
 20
-280.2968851715
 10
903.1543861186
 20
-279.9938456385
 10
908.3770137847
 20
-277.4363531253
 10
913.7657765996
 20
-275.1898516603
 10
919.3140356326
 20
-273.2571089231
 10
925.0149554541
 20
-271.6405060438
 10
930.8615125571
 20
-270.3420346697
 10
936.8465040102
 20
-269.3632945115
 10
942.9625563315
 20
-268.7054913726
 10
949.2021345729
 20
-268.3694356634
 10
955.5575516027
 20
-268.3555414031
 10
962.0209775764
 20
-268.6638257092
 10
968.584449583
 20
-269.2939087769
 10
975.2398814552
 20
-270.2450143468
 10
981.9790737318
 20
-271.5159706613
 10
988.7937237588
 20
-273.1052119079
 10
995.6754359189
 20
-275.0107801489
 10
1002.6157319745
 20
-277.2303277329
 10
1009.332558399
 20
-279.6566053941
  0
ARC
  5
116
330
1F
100
AcDbEntity
  8
0
  6
Continuous
 62
     7
370
    25
100
AcDbCircle
 10
910.4163702677
 20
-527.5918496057
 30
0.0
 40
267.0291095399356
100
AcDbArc
 50
54.8740514162
 51
66.5303760536
  0
LWPOLYLINE
  5
117
330
1F
100
AcDbEntity
  8
0
  6
Continuous
 62
     7
370
    25
100
AcDbPolyline
 90
       66
 70
   128
 43
0.0
 10
1065.5731222881
 20
-310.253487754
 10
1066.2884386527
 20
-310.7595881284
 10
1073.3376544507
 20
-315.9067445879
 10
1080.349774649
 20
-321.3174967508
 10
1087.3161603479
 20
-326.9851785954
 10
1094.2282289923
 20
-332.9028075638
 10
1101.0774649455
 20
-339.0630931644
 10
1107.8554299804
 20
-345.4584459537
 10
1114.5537736753
 20
-352.0809868867
 10
1121.1642437017
 20
-358.9225570233
 10
1127.678695991
 20
-365.9747275809
 10
1134.089104768
 20
-373.2288103176
 10
1140.3875724387
 20
-380.6758682371
 10
1146.5663393199
 20
-388.3067265984
 10
1152.6177931993
 20
-396.1119842191
 10
1158.5344787137
 20
-404.0820250579
 10
1164.3091065337
 20
-412.2070300611
 10
1169.9345623446
 20
-420.4769892601
 10
1175.4039156107
 20
-428.8817141033
 10
1180.710428114
 20
-437.4108500084
 10
1185.8475622556
 20
-446.0538891193
 10
1190.8089891099
 20
-454.8001832517
 10
1195.5885962219
 20
-463.6389570116
 10
1200.1804951376
 20
-472.5593210704
 10
1204.5790286589
 20
-481.5502855808
 10
1208.7787778126
 20
-490.6007737158
 10
1212.7745685271
 20
-499.699635316
 10
1216.5614780069
 20
-508.8356606257
 10
1220.1348407967
 20
-517.9975941039
 10
1223.4902545302
 20
-527.1741482909
 10
1226.6235853531
 20
-536.354017714
 10
1229.5309730163
 20
-545.5258928167
 10
1232.2088356315
 20
-554.6784738909
 10
1234.6538740845
 20
-563.8004849991
 10
1236.863076099
 20
-572.8806878656
 10
1238.8337199484
 20
-581.9078957224
 10
1240.5633778085
 20
-590.870987091
 10
1242.049918749
 20
-599.7589194841
 10
1243.291511358
 20
-608.5607430101
 10
1244.2866259994
 20
-617.265613863
 10
1245.0340366964
 20
-625.8628076819
 10
1245.5328226425
 20
-634.3417327638
 10
1245.7823693358
 20
-642.6919431121
 10
1245.7823693358
 20
-650.9031513061
 10
1245.5328226425
 20
-658.9652411752
 10
1245.0340366964
 20
-666.8682802618
 10
1244.2866259994
 20
-674.6025320582
 10
1243.291511358
 20
-682.1584680019
 10
1242.049918749
 20
-689.5267792146
 10
1240.5633778085
 20
-696.698387971
 10
1238.8337199484
 20
-703.664458882
 10
1236.863076099
 20
-710.4164097804
 10
1234.6538740845
 20
-716.945922294
 10
1232.2088356315
 20
-723.2449520932
 10
1229.5309730163
 20
-729.3057388026
 10
1226.6235853531
 20
-735.1208155608
 10
1223.4902545302
 20
-740.6830182201
 10
1220.1348407967
 20
-745.9854941724
 10
1216.5614780069
 20
-751.0217107918
 10
1212.7745685271
 20
-755.7854634826
 10
1208.7787778126
 20
-760.2708833236
 10
1204.5790286589
 20
-764.4724442981
 10
1200.1804951376
 20
-768.3849701025
 10
1195.5885962219
 20
-772.0036405229
 10
1190.8089891099
 20
-775.3239973741
 10
1189.0158271739
 20
-776.4626541569
  0
SPLINE
  5
118
330
1F
100
AcDbEntity
  8
0
  6
Continuous
 62
     7
370
    25
100
AcDbSpline
210
0.0
220
0.0
230
1.0
 70
     8
 71
     3
 72
    12
 73
     8
 74
     0
 42
0.00000001
 43
0.00000001
 40
0.0
 40
0.0
 40
0.0
 40
0.0
 40
0.2388333337631426
 40
0.4776632078517087
 40
0.7163558176222113
 40
0.9536529067043593
 40
1.0
 40
1.0
 40
1.0
 40
1.0
 10
1058.490029692536
 20
-320.9623162578833
 30
0.0
 10
1057.716897047157
 20
-320.7685312657304
 30
0.0
 10
1056.170642955788
 20
-320.380964088541
 30
0.0
 10
1054.245621887938
 20
-319.2509232410326
 30
0.0
 10
1052.981856248786
 20
-317.8793029145018
 30
0.0
 10
1052.414594023982
 20
-316.7486651432242
 30
0.0
 10
1052.53420697846
 20
-316.1712247096672
 30
0.0
 10
1052.553751580835
 20
-316.0768716881373
 30
0.0
  0
SPLINE
  5
119
330
1F
100
AcDbEntity
  8
0
  6
Continuous
 62
     7
370
    25
100
AcDbSpline
210
0.0
220
0.0
230
1.0
 70
     8
 71
     3
 72
    13
 73
     9
 74
     0
 42
0.00000001
 43
0.00000001
 40
0.0
 40
0.0
 40
0.0
 40
0.0
 40
0.0974075462841635
 40
0.2939809283643822
 40
0.4888274594519769
 40
0.6829918994192913
 40
0.8780078623775108
 40
0.9999999999999999
 40
0.9999999999999999
 40
0.9999999999999999
 40
0.9999999999999999
 10
1066.390187837319
 20
-317.2445254770921
 30
0.0
 10
1066.41022881064
 20
-317.4970673548308
 30
0.0
 10
1066.470713487309
 20
-318.2592515849105
 30
0.0
 10
1065.71276497896
 20
-319.4025714776872
 30
0.0
 10
1064.261302566316
 20
-320.4697547546708
 30
0.0
 10
1062.249701962882
 20
-321.0884967373127
 30
0.0
 10
1060.230031293845
 20
-321.2169634364496
 30
0.0
 10
1058.973552242954
 20
-321.0330792118626
 30
0.0
 10
1058.490029692536
 20
-320.9623162578833
 30
0.0
  0
SPLINE
  5
11A
330
1F
100
AcDbEntity
  8
0
  6
Continuous
 62
     7
370
    25
100
AcDbSpline
210
0.0
220
0.0
230
1.0
 70
     8
 71
     3
 72
    13
 73
     9
 74
     0
 42
0.00000001
 43
0.00000001
 40
0.0
 40
0.0
 40
0.0
 40
0.0
 40
0.1923283238193838
 40
0.3846238017976463
 40
0.5777884431173314
 40
0.7723699370953254
 40
0.9679266762995233
 40
1.0
 40
1.0
 40
1.0
 40
1.0
 10
1011.198715864299
 20
-291.4252721386823
 30
0.0
 10
1010.410922707122
 20
-291.4919379128495
 30
0.0
 10
1008.835470932127
 20
-291.6252580759996
 30
0.0
 10
1006.574429990107
 20
-291.3300092585332
 30
0.0
 10
1004.684299565667
 20
-290.7086176415185
 30
0.0
 10
1003.456503441801
 20
-289.7909625941229
 30
0.0
 10
1002.90656259893
 20
-288.9997927281636
 30
0.0
 10
1003.031319306047
 20
-288.5501705468515
 30
0.0
 10
1003.048897661911
 20
-288.4868182919686
 30
0.0
  0
SPLINE
  5
11B
330
1F
100
AcDbEntity
  8
0
  6
Continuous
 62
     7
370
    25
100
AcDbSpline
210
0.0
220
0.0
230
1.0
 70
     8
 71
     3
 72
    12
 73
     8
 74
     0
 42
0.00000001
 43
0.00000001
 40
0.0
 40
0.0
 40
0.0
 40
0.0
 40
0.1274626473476533
 40
0.3698676256803342
 40
0.6109811039262827
 40
0.8511258368256837
 40
1.0
 40
1.0
 40
1.0
 40
1.0
 10
1016.8928697991
 20
-287.6894666939
 30
0.0
 10
1016.910531987225
 20
-287.896802416359
 30
0.0
 10
1016.961783641902
 20
-288.4984435479406
 30
0.0
 10
1016.175392951977
 20
-289.4969226285162
 30
0.0
 10
1014.689871043924
 20
-290.4969564639125
 30
0.0
 10
1012.903185743795
 20
-291.1417082518858
 30
0.0
 10
1011.670466749727
 20
-291.3467893703561
 30
0.0
 10
1011.198715864299
 20
-291.4252721386824
 30
0.0
  0
LWPOLYLINE
  5
11C
330
1F
100
AcDbEntity
  8
0
  6
Continuous
 62
     7
370
    25
100
AcDbPolyline
 90
       29
 70
   128
 43
0.0
 10
826.8528020269
 20
-446.552986457
 10
827.8301239532
 20
-447.260465787
 10
828.5102378707
 20
-448.0757525402
 10
828.8590400278
 20
-448.9579648347
 10
828.8590400278
 20
-449.8628648621
 10
828.5102378707
 20
-450.7450771566
 10
827.8301239532
 20
-451.5603639099
 10
826.8528020269
 20
-452.2678432398
 10
825.6272790942
 20
-452.8320391786
 10
824.2150079923
 20
-453.224660586
 10
822.6868058913
 20
-453.4260197853
 10
821.1193032258
 20
-453.4260197853
 10
819.5911011249
 20
-453.224660586
 10
818.178830023
 20
-452.8320391786
 10
816.9533070903
 20
-452.2678432398
 10
815.975985164
 20
-451.5603639099
 10
815.2958712464
 20
-450.7450771566
 10
814.9470690893
 20
-449.8628648621
 10
814.9470690893
 20
-448.9579648347
 10
815.2958712464
 20
-448.0757525402
 10
815.975985164
 20
-447.260465787
 10
816.9533070903
 20
-446.552986457
 10
818.178830023
 20
-445.9887905182
 10
819.5911011249
 20
-445.5961691108
 10
821.1193032258
 20
-445.3948099116
 10
822.6868058913
 20
-445.3948099116
 10
824.2150079923
 20
-445.5961691108
 10
825.6272790942
 20
-445.9887905182
 10
826.8528020269
 20
-446.552986457
  0
LWPOLYLINE
  5
11D
330
1F
100
AcDbEntity
  8
0
  6
Continuous
 62
     7
370
    25
100
AcDbPolyline
 90
       24
 70
   128
 43
0.0
 10
825.4385884645
 20
-447.3693945689
 10
826.2613569087
 20
-447.9957418187
 10
826.7608900056
 20
-448.7270088955
 10
826.9001396704
 20
-449.5089610654
 10
826.6687783926
 20
-450.2836045132
 10
826.0839651798
 20
-450.9934874781
 10
825.1890729527
 20
-451.5859611882
 10
824.0504717737
 20
-452.0170845788
 10
822.7526064837
 20
-452.2548832001
 10
821.3917338139
 20
-452.2817206164
 10
820.0687834645
 20
-452.0956064192
 10
818.881872611
 20
-451.7103438472
 10
817.9190290015
 20
-451.1545060628
 10
817.2516623419
 20
-450.4693170117
 10
816.9292681643
 20
-449.7055940313
 10
816.97575697
 20
-448.9199789613
 10
817.3876808969
 20
-448.1707372774
 10
818.1344894319
 20
-447.5134368078
 10
819.1607952023
 20
-446.9968265214
 10
820.3904818042
 20
-446.6592210398
 10
821.7323490076
 20
-446.5256590171
 10
823.0868766609
 20
-446.6060461375
 10
824.3536056445
 20
-446.8944204561
 10
825.4385884645
 20
-447.3693945689
  0
SPLINE
  5
11E
330
1F
100
AcDbEntity
  8
0
  6
Continuous
 62
     7
370
    25
100
AcDbSpline
210
0.0
220
0.0
230
1.0
 70
     8
 71
     3
 72
    13
 73
     9
 74
     0
 42
0.00000001
 43
0.00000001
 40
0.0
 40
0.0
 40
0.0
 40
0.0
 40
0.1216653723920904
 40
0.3363701471536417
 40
0.5508425904240162
 40
0.7658401877027566
 40
0.9820613323811365
 40
1.0
 40
1.0
 40
1.0
 40
1.0
 10
818.2973831059912
 20
-451.3820086427688
 30
0.0
 10
818.5068958116718
 20
-451.2362842391902
 30
0.0
 10
819.0861388473421
 20
-450.8333977143571
 30
0.0
 10
820.435789479692
 20
-450.5056454709657
 30
0.0
 10
822.1174894424216
 20
-450.4333380703662
 30
0.0
 10
823.750413792062
 20
-450.7734021583227
 30
0.0
 10
824.8505910375548
 20
-451.1798465346155
 30
0.0
 10
825.2291245221024
 20
-451.5134197783058
 30
0.0
 10
825.2581234621651
 20
-451.5389743749141
 30
0.0
  0
LWPOLYLINE
  5
11F
330
1F
100
AcDbEntity
  8
0
  6
Continuous
 62
     7
370
    25
100
AcDbPolyline
 90
       29
 70
   128
 43
0.0
 10
767.4558324072
 20
-423.693559326
 10
766.4785104809
 20
-422.9860799961
 10
765.7983965634
 20
-422.1707932428
 10
765.4495944063
 20
-421.2885809483
 10
765.4495944063
 20
-420.3836809209
 10
765.7983965634
 20
-419.5014686264
 10
766.4785104809
 20
-418.6861818732
 10
767.4558324072
 20
-417.9787025433
 10
768.6813553399
 20
-417.4145066045
 10
770.0936264418
 20
-417.021885197
 10
771.6218285428
 20
-416.8205259978
 10
773.1893312082
 20
-416.8205259978
 10
774.7175333092
 20
-417.021885197
 10
776.1298044111
 20
-417.4145066045
 10
777.3553273438
 20
-417.9787025433
 10
778.3326492701
 20
-418.6861818732
 10
779.0127631877
 20
-419.5014686264
 10
779.3615653448
 20
-420.3836809209
 10
779.3615653448
 20
-421.2885809483
 10
779.0127631877
 20
-422.1707932428
 10
778.3326492701
 20
-422.9860799961
 10
777.3553273438
 20
-423.693559326
 10
776.1298044111
 20
-424.2577552648
 10
774.7175333092
 20
-424.6503766722
 10
773.1893312082
 20
-424.8517358715
 10
771.6218285428
 20
-424.8517358715
 10
770.0936264418
 20
-424.6503766722
 10
768.6813553399
 20
-424.2577552648
 10
767.4558324072
 20
-423.693559326
  0
LWPOLYLINE
  5
120
330
1F
100
AcDbEntity
  8
0
  6
Continuous
 62
     7
370
    25
100
AcDbPolyline
 90
       24
 70
   128
 43
0.0
 10
768.8700459696
 20
-422.8771512142
 10
768.0472775254
 20
-422.2508039644
 10
767.5477444285
 20
-421.5195368876
 10
767.4084947637
 20
-420.7375847177
 10
767.6398560414
 20
-419.9629412699
 10
768.2246692542
 20
-419.2530583049
 10
769.1195614814
 20
-418.6605845948
 10
770.2581626604
 20
-418.2294612043
 10
771.5560279504
 20
-417.991662583
 10
772.9169006202
 20
-417.9648251667
 10
774.2398509696
 20
-418.1509393638
 10
775.4267618231
 20
-418.5362019359
 10
776.3896054326
 20
-419.0920397203
 10
777.0569720922
 20
-419.7772287714
 10
777.3793662698
 20
-420.5409517518
 10
777.3328774641
 20
-421.3265668218
 10
776.9209535371
 20
-422.0758085057
 10
776.1741450022
 20
-422.7331089752
 10
775.1478392318
 20
-423.2497192616
 10
773.9181526299
 20
-423.5873247432
 10
772.5762854264
 20
-423.7208867659
 10
771.2217577732
 20
-423.6404996455
 10
769.9550287896
 20
-423.3521253269
 10
768.8700459696
 20
-422.8771512142
  0
SPLINE
  5
121
330
1F
100
AcDbEntity
  8
0
  6
Continuous
 62
     7
370
    25
100
AcDbSpline
210
0.0
220
0.0
230
1.0
 70
     8
 71
     3
 72
    12
 73
     8
 74
     0
 42
0.00000001
 43
0.00000001
 40
0.0
 40
0.0
 40
0.0
 40
0.0
 40
0.0509075840223863
 40
0.3108663009870286
 40
0.5729005274563761
 40
0.8373978649126459
 40
1.0
 40
1.0
 40
1.0
 40
1.0
 10
769.7802134024223
 20
-423.2756135556272
 30
0.0
 10
769.864650093319
 20
-423.2324872003986
 30
0.0
 10
770.3802613184574
 20
-422.9691368414607
 30
0.0
 10
771.6217079471469
 20
-422.6916868537911
 30
0.0
 10
773.2877944492466
 20
-422.5377065705208
 30
0.0
 10
774.7347340781361
 20
-422.646620379891
 30
0.0
 10
775.4082899469505
 20
-422.9080338541363
 30
0.0
 10
775.6647211284679
 20
-423.0075572480655
 30
0.0
  0
LWPOLYLINE
  5
122
330
1F
100
AcDbEntity
  8
0
  6
Continuous
 62
     7
370
    25
100
AcDbPolyline
 90
       29
 70
   128
 43
0.0
 10
1054.5411855689
 20
-315.1112804536
 10
1053.5638636427
 20
-314.4038011237
 10
1052.8837497251
 20
-313.5885143704
 10
1052.534947568
 20
-312.7063020759
 10
1052.534947568
 20
-311.8014020485
 10
1052.8837497251
 20
-310.919189754
 10
1053.5638636427
 20
-310.1039030008
 10
1054.5411855689
 20
-309.3964236708
 10
1055.7667085016
 20
-308.832227732
 10
1057.1789796036
 20
-308.4396063246
 10
1058.7071817045
 20
-308.2382471254
 10
1060.27468437
 20
-308.2382471254
 10
1061.8028864709
 20
-308.4396063246
 10
1063.2151575729
 20
-308.832227732
 10
1064.4406805056
 20
-309.3964236708
 10
1065.4180024319
 20
-310.1039030008
 10
1066.0981163494
 20
-310.919189754
 10
1066.4469185065
 20
-311.8014020485
 10
1066.4469185065
 20
-312.7063020759
 10
1066.0981163494
 20
-313.5885143704
 10
1065.4180024319
 20
-314.4038011237
 10
1064.4406805056
 20
-315.1112804536
 10
1063.2151575729
 20
-315.6754763924
 10
1061.8028864709
 20
-316.0680977998
 10
1060.27468437
 20
-316.2694569991
 10
1058.7071817045
 20
-316.2694569991
 10
1057.1789796036
 20
-316.0680977998
 10
1055.7667085016
 20
-315.6754763924
 10
1054.5411855689
 20
-315.1112804536
  0
LWPOLYLINE
  5
123
330
1F
100
AcDbEntity
  8
0
  6
Continuous
 62
     7
370
    25
100
AcDbPolyline
 90
       24
 70
   128
 43
0.0
 10
1055.9553991313
 20
-314.2948723418
 10
1055.1326306871
 20
-313.6685250919
 10
1054.6330975903
 20
-312.9372580152
 10
1054.4938479254
 20
-312.1553058453
 10
1054.7252092032
 20
-311.3806623975
 10
1055.310022416
 20
-310.6707794325
 10
1056.2049146432
 20
-310.0783057224
 10
1057.3435158221
 20
-309.6471823319
 10
1058.6413811121
 20
-309.4093837105
 10
1060.002253782
 20
-309.3825462942
 10
1061.3252041313
 20
-309.5686604914
 10
1062.5121149849
 20
-309.9539230635
 10
1063.4749585943
 20
-310.5097608479
 10
1064.1423252539
 20
-311.194949899
 10
1064.4647194315
 20
-311.9586728794
 10
1064.4182306258
 20
-312.7442879494
 10
1064.0063066989
 20
-313.4935296332
 10
1063.2594981639
 20
-314.1508301028
 10
1062.2331923935
 20
-314.6674403892
 10
1061.0035057917
 20
-315.0050458708
 10
1059.6616385882
 20
-315.1386078935
 10
1058.3071109349
 20
-315.0582207731
 10
1057.0403819514
 20
-314.7698464545
 10
1055.9553991313
 20
-314.2948723418
  0
SPLINE
  5
124
330
1F
100
AcDbEntity
  8
0
  6
Continuous
 62
     7
370
    25
100
AcDbSpline
210
0.0
220
0.0
230
1.0
 70
     8
 71
     3
 72
    13
 73
     9
 74
     0
 42
0.00000001
 43
0.00000001
 40
0.0
 40
0.0
 40
0.0
 40
0.0
 40
0.1038200473623406
 40
0.3257571958572183
 40
0.5484649613731118
 40
0.7723926650279962
 40
0.9976524943713376
 40
1.0
 40
1.0
 40
1.0
 40
1.0
 10
1055.922247268369
 20
-314.1972776571003
 30
0.0
 10
1056.091898812157
 20
-314.0852577995304
 30
0.0
 10
1056.624216149524
 20
-313.7337719775779
 30
0.0
 10
1057.915125126905
 20
-313.4567781358236
 30
0.0
 10
1059.591628186368
 20
-313.4091489596076
 30
0.0
 10
1061.234937753583
 20
-313.7657141899666
 30
0.0
 10
1062.324975079956
 20
-314.1547816571056
 30
0.0
 10
1062.692875526047
 20
-314.4601973059176
 30
0.0
 10
1062.696669992372
 20
-314.4633473140435
 30
0.0
  0
LWPOLYLINE
  5
125
330
1F
100
AcDbEntity
  8
0
  6
Continuous
 62
     7
370
    25
100
AcDbPolyline
 90
       29
 70
   128
 43
0.0
 10
1014.9432058225
 20
-280.822139757
 10
1015.9205277488
 20
-281.529619087
 10
1016.6006416664
 20
-282.3449058402
 10
1016.9494438234
 20
-283.2271181347
 10
1016.9494438234
 20
-284.1320181621
 10
1016.6006416664
 20
-285.0142304566
 10
1015.9205277488
 20
-285.8295172099
 10
1014.9432058225
 20
-286.5369965398
 10
1013.7176828898
 20
-287.1011924786
 10
1012.3054117879
 20
-287.493813886
 10
1010.7772096869
 20
-287.6951730853
 10
1009.2097070215
 20
-287.6951730853
 10
1007.6815049205
 20
-287.493813886
 10
1006.2692338186
 20
-287.1011924786
 10
1005.0437108859
 20
-286.5369965398
 10
1004.0663889596
 20
-285.8295172099
 10
1003.386275042
 20
-285.0142304566
 10
1003.0374728849
 20
-284.1320181621
 10
1003.0374728849
 20
-283.2271181347
 10
1003.386275042
 20
-282.3449058402
 10
1004.0663889596
 20
-281.529619087
 10
1005.0437108859
 20
-280.822139757
 10
1006.2692338186
 20
-280.2579438182
 10
1007.6815049205
 20
-279.8653224108
 10
1009.2097070215
 20
-279.6639632116
 10
1010.7772096869
 20
-279.6639632116
 10
1012.3054117879
 20
-279.8653224108
 10
1013.7176828898
 20
-280.2579438182
 10
1014.9432058225
 20
-280.822139757
  0
LWPOLYLINE
  5
126
330
1F
100
AcDbEntity
  8
0
  6
Continuous
 62
     7
370
    25
100
AcDbPolyline
 90
       24
 70
   128
 43
0.0
 10
1013.5289922601
 20
-281.6385478689
 10
1014.3517607044
 20
-282.2648951187
 10
1014.8512938012
 20
-282.9961621954
 10
1014.990543466
 20
-283.7781143654
 10
1014.7591821883
 20
-284.5527578132
 10
1014.1743689755
 20
-285.2626407781
 10
1013.2794767483
 20
-285.8551144882
 10
1012.1408755693
 20
-286.2862378787
 10
1010.8430102793
 20
-286.5240365001
 10
1009.4821376095
 20
-286.5508739164
 10
1008.1591872601
 20
-286.3647597192
 10
1006.9722764066
 20
-285.9794971472
 10
1006.0094327971
 20
-285.4236593627
 10
1005.3420661375
 20
-284.7384703117
 10
1005.0196719599
 20
-283.9747473313
 10
1005.0661607656
 20
-283.1891322613
 10
1005.4780846926
 20
-282.4398905774
 10
1006.2248932276
 20
-281.7825901078
 10
1007.2511989979
 20
-281.2659798214
 10
1008.4808855998
 20
-280.9283743398
 10
1009.8227528033
 20
-280.7948123171
 10
1011.1772804565
 20
-280.8751994375
 10
1012.4440094401
 20
-281.1635737561
 10
1013.5289922601
 20
-281.6385478689
  0
SPLINE
  5
127
330
1F
100
AcDbEntity
  8
0
  6
Continuous
 62
     7
370
    25
100
AcDbSpline
210
0.0
220
0.0
230
1.0
 70
     8
 71
     3
 72
    12
 73
     8
 74
     0
 42
0.00000001
 43
0.00000001
 40
0.0
 40
0.0
 40
0.0
 40
0.0
 40
0.1134562328572459
 40
0.394567894862355
 40
0.6769460550575224
 40
0.9617072041151816
 40
1.0
 40
1.0
 40
1.0
 40
1.0
 10
1007.487463055013
 20
-286.1325893363333
 30
0.0
 10
1007.671959403229
 20
-286.0583074990508
 30
0.0
 10
1008.313584229758
 20
-285.7999767980845
 30
0.0
 10
1009.685155971611
 20
-285.5886876088392
 30
0.0
 10
1011.329770579388
 20
-285.5735110957492
 30
0.0
 10
1012.505000240843
 20
-285.7114459576706
 30
0.0
 10
1012.949329730487
 20
-285.9083188269586
 30
0.0
 10
1013.001997771596
 20
-285.9316549066349
 30
0.0
  0
LWPOLYLINE
  5
128
330
1F
100
AcDbEntity
  8
0
  6
Continuous
 62
     1
370
    25
100
AcDbPolyline
 90
       92
 70
   128
 43
0.0
 10
755.7998964493
 20
-362.6714254615
 10
758.327833482
 20
-361.2623432301
 10
763.5355051794
 20
-358.6608701509
 10
768.9094845713
 20
-356.3686931369
 10
774.4432242916
 20
-354.3886048529
 10
780.1299823309
 20
-352.7230177314
 10
785.9628302504
 20
-351.3739610337
 10
791.9346616235
 20
-350.3430783776
 10
798.0382006935
 20
-349.6316257348
 10
804.2660112383
 20
-349.2404699008
 10
810.6105056299
 20
-349.1700874388
 10
817.0639540794
 20
-349.4205640988
 10
823.6184940537
 20
-349.9915947137
 10
830.2661398557
 20
-350.8824835706
 10
836.9987923529
 20
-352.0921452588
 10
843.8082488454
 20
-353.6191059917
 10
850.6862130592
 20
-355.4615054029
 10
857.6243052545
 20
-357.6170988125
 10
864.6140724346
 20
-360.0832599621
 10
871.646998645
 20
-362.856984214
 10
878.7145153485
 20
-365.9348922127
 10
885.8080118644
 20
-369.3132340013
 10
892.9188458601
 20
-372.9878935907
 10
900.0383538797
 20
-376.9543939743
 10
907.1578618992
 20
-381.2079025823
 10
914.2686958949
 20
-385.7432371696
 10
921.3621924109
 20
-390.5548721299
 10
928.4297091143
 20
-395.6369452269
 10
935.4626353247
 20
-400.9832647374
 10
942.4524025049
 20
-406.5873169948
 10
949.3904947002
 20
-412.4422743245
 10
956.268458914
 20
-418.5410033629
 10
963.0779154064
 20
-424.8760737481
 10
969.8105679036
 20
-431.4397671727
 10
976.4582137056
 20
-438.2240867873
 10
983.01275368
 20
-445.2207669436
 10
989.4662021294
 20
-452.4212832644
 10
995.8106965211
 20
-459.8168630299
 10
1002.0385070658
 20
-467.3984958652
 10
1008.1420461359
 20
-475.1569447187
 10
1014.1138775089
 20
-483.0827571155
 10
1019.9467254285
 20
-491.166276674
 10
1025.6334834678
 20
-499.3976548709
 10
1031.1672231881
 20
-507.7668630398
 10
1036.54120258
 20
-516.2637045896
 10
1041.7488742774
 20
-524.8778274279
 10
1046.7838935346
 20
-533.5987365728
 10
1051.6401259561
 20
-542.4158069398
 10
1056.3116549708
 20
-551.318296287
 10
1060.7927890401
 20
-560.2953583024
 10
1065.0780685926
 20
-569.3360558186
 10
1069.1622726751
 20
-578.4293741385
 10
1073.0404253141
 20
-587.5642344543
 10
1076.7078015779
 20
-596.7295073459
 10
1080.1599333336
 20
-605.91402634
 10
1083.3926146903
 20
-615.1066015151
 10
1086.4019071238
 20
-624.2960331342
 10
1089.1841442748
 20
-633.4711252906
 10
1091.7359364158
 20
-642.6206995476
 10
1094.0541745813
 20
-651.7336085584
 10
1096.1360343551
 20
-660.7987496473
 10
1097.9789793117
 20
-669.805078336
 10
1099.5807641067
 20
-678.7416218005
 10
1100.939437212
 20
-687.597492239
 10
1102.0533432937
 20
-696.3619001377
 10
1102.9211252288
 20
-705.0241674155
 10
1103.5417257587
 20
-713.573740434
 10
1103.9143887773
 20
-722.0002028556
 10
1104.038660252
 20
-730.2932883337
 10
1103.9143887773
 20
-738.4428930212
 10
1103.5417257587
 20
-746.43908788
 10
1102.9211252288
 20
-754.2721307785
 10
1102.0533432937
 20
-761.9324783605
 10
1100.939437212
 20
-769.4107976724
 10
1099.5807641067
 20
-776.6979775341
 10
1097.9789793117
 20
-783.7851396395
 10
1096.1360343551
 20
-790.6636493732
 10
1094.0541745813
 20
-797.3251263306
 10
1091.7359364158
 20
-803.7614545282
 10
1089.1841442748
 20
-809.9647922916
 10
1086.4019071238
 20
-815.9275818092
 10
1083.3926146903
 20
-821.6425583405
 10
1080.1599333336
 20
-827.1027590669
 10
1076.7078015779
 20
-832.3015315749
 10
1073.0404253141
 20
-837.2325419611
 10
1069.1622726751
 20
-841.8897825487
 10
1065.0780685926
 20
-846.2675792077
 10
1060.7927890401
 20
-850.360598267
 10
1056.3116549708
 20
-854.1638530134
 10
1051.6401259561
 20
-857.672709767
 10
1046.7838935346
 20
-860.8828935261
 10
1044.276759291
 20
-862.3814409752
  0
LWPOLYLINE
  5
129
330
1F
100
AcDbEntity
  8
0
  6
Continuous
 62
     1
370
    25
100
AcDbPolyline
 90
       92
 70
   128
 43
0.0
 10
787.6198818503
 20
-344.3021388905
 10
790.1476386353
 20
-342.8931607141
 10
795.3553103328
 20
-340.2916876349
 10
800.7292897247
 20
-337.9995106209
 10
806.263029445
 20
-336.0194223369
 10
811.9497874843
 20
-334.3538352154
 10
817.7826354038
 20
-333.0047785177
 10
823.7544667769
 20
-331.9738958616
 10
829.8580058469
 20
-331.2624432188
 10
836.0858163917
 20
-330.8712873848
 10
842.4303107833
 20
-330.8009049227
 10
848.8837592328
 20
-331.0513815828
 10
855.4382992071
 20
-331.6224121977
 10
862.0859450091
 20
-332.5133010546
 10
868.8185975063
 20
-333.7229627428
 10
875.6280539988
 20
-335.2499234757
 10
882.5060182126
 20
-337.0923228869
 10
889.4441104079
 20
-339.2479162965
 10
896.433877588
 20
-341.7140774461
 10
903.4668037984
 20
-344.487801698
 10
910.5343205019
 20
-347.5657096967
 10
917.6278170178
 20
-350.9440514853
 10
924.7386510135
 20
-354.6187110747
 10
931.8581590331
 20
-358.5852114582
 10
938.9776670526
 20
-362.8387200662
 10
946.0885010483
 20
-367.3740546536
 10
953.1819975643
 20
-372.1856896139
 10
960.2495142677
 20
-377.2677627109
 10
967.2824404781
 20
-382.6140822214
 10
974.2722076583
 20
-388.2181344788
 10
981.2102998536
 20
-394.0730918085
 10
988.0882640674
 20
-400.1718208468
 10
994.8977205598
 20
-406.5068912321
 10
1001.630373057
 20
-413.0705846567
 10
1008.278018859
 20
-419.8549042713
 10
1014.8325588334
 20
-426.8515844276
 10
1021.2860072828
 20
-434.0521007484
 10
1027.6305016745
 20
-441.4476805139
 10
1033.8583122192
 20
-449.0293133492
 10
1039.9618512892
 20
-456.7877622027
 10
1045.9336826623
 20
-464.7135745995
 10
1051.7665305819
 20
-472.797094158
 10
1057.4532886211
 20
-481.0284723549
 10
1062.9870283415
 20
-489.3976805237
 10
1068.3610077334
 20
-497.8945220736
 10
1073.5686794308
 20
-506.5086449119
 10
1078.603698688
 20
-515.2295540567
 10
1083.4599311095
 20
-524.0466244238
 10
1088.1314601242
 20
-532.949113771
 10
1092.6125941935
 20
-541.9261757864
 10
1096.897873746
 20
-550.9668733026
 10
1100.9820778285
 20
-560.0601916225
 10
1104.8602304675
 20
-569.1950519383
 10
1108.5276067313
 20
-578.3603248299
 10
1111.979738487
 20
-587.544843824
 10
1115.2124198437
 20
-596.7374189991
 10
1118.2217122772
 20
-605.9268506182
 10
1121.0039494282
 20
-615.1019427745
 10
1123.5557415692
 20
-624.2515170316
 10
1125.8739797347
 20
-633.3644260424
 10
1127.9558395085
 20
-642.4295671313
 10
1129.7987844651
 20
-651.43589582
 10
1131.4005692601
 20
-660.3724392845
 10
1132.7592423654
 20
-669.228309723
 10
1133.8731484471
 20
-677.9927176217
 10
1134.7409303822
 20
-686.6549848995
 10
1135.3615309121
 20
-695.204557918
 10
1135.7341939307
 20
-703.6310203396
 10
1135.8584654054
 20
-711.9241058177
 10
1135.7341939307
 20
-720.0737105052
 10
1135.3615309121
 20
-728.069905364
 10
1134.7409303822
 20
-735.9029482625
 10
1133.8731484471
 20
-743.5632958445
 10
1132.7592423654
 20
-751.0416151564
 10
1131.4005692601
 20
-758.3287950181
 10
1129.7987844651
 20
-765.4159571235
 10
1127.9558395085
 20
-772.2944668572
 10
1125.8739797347
 20
-778.9559438146
 10
1123.5557415692
 20
-785.3922720122
 10
1121.0039494282
 20
-791.5956097756
 10
1118.2217122772
 20
-797.5583992932
 10
1115.2124198437
 20
-803.2733758245
 10
1111.979738487
 20
-808.7335765509
 10
1108.5276067313
 20
-813.9323490589
 10
1104.8602304675
 20
-818.8633594451
 10
1100.9820778285
 20
-823.5206000327
 10
1096.897873746
 20
-827.8983966917
 10
1092.6125941935
 20
-831.991415751
 10
1088.1314601242
 20
-835.7946704974
 10
1083.4599311095
 20
-839.3035272509
 10
1078.603698688
 20
-842.5137110101
 10
1076.0964362158
 20
-844.0123324841
  0
ENDSEC
  0
SECTION
  2
OBJECTS
  0
DICTIONARY
  5
C
330
0
100
AcDbDictionary
281
     1
  3
ACAD_GROUP
350
D
  3
ACAD_LAYOUT
350
1A
  3
ACAD_MLINESTYLE
350
17
  3
ACAD_PLOTSETTINGS
350
19
  3
ACAD_PLOTSTYLENAME
350
E
  3
ACAD_SCALELIST
350
47
  3
DWGPROPS
350
12A
  0
DICTIONARY
  5
D
102
{ACAD_REACTORS
330
C
102
}
330
C
100
AcDbDictionary
281
     1
  0
DICTIONARY
  5
1A
102
{ACAD_REACTORS
330
C
102
}
330
C
100
AcDbDictionary
281
     1
  3
Layout1
350
1E
  3
Layout2
350
26
  3
Model
350
22
  0
DICTIONARY
  5
17
102
{ACAD_REACTORS
330
C
102
}
330
C
100
AcDbDictionary
281
     1
  3
Standard
350
18
  0
DICTIONARY
  5
19
102
{ACAD_REACTORS
330
C
102
}
330
C
100
AcDbDictionary
281
     1
  0
ACDBDICTIONARYWDFLT
  5
E
102
{ACAD_REACTORS
330
C
102
}
330
C
100
AcDbDictionary
281
     1
  3
Normal
350
F
100
AcDbDictionaryWithDefault
340
F
  0
DICTIONARY
  5
47
102
{ACAD_REACTORS
330
C
102
}
330
C
100
AcDbDictionary
281
     1
  3
A0
350
48
  3
A1
350
49
  3
A2
350
4A
  3
A3
350
4B
  3
A4
350
4C
  3
A5
350
4D
  3
A6
350
4E
  3
A7
350
4F
  3
A8
350
50
  3
A9
350
51
  3
B0
350
52
  3
B1
350
53
  3
B2
350
54
  3
B3
350
55
  3
B4
350
56
  3
B5
350
57
  3
B6
350
58
  3
B7
350
59
  3
B8
350
5A
  3
B9
350
5B
  3
C0
350
5C
  3
C1
350
5D
  3
C2
350
5E
  3
C3
350
5F
  3
C4
350
60
  3
C5
350
61
  3
C6
350
62
  3
C7
350
63
  3
C8
350
64
  3
C9
350
65
  3
D0
350
66
  3
D1
350
67
  3
D2
350
68
  0
XRECORD
  5
12A
102
{ACAD_REACTORS
330
C
102
}
330
C
100
AcDbXrecord
280
     1
  1
DWGPROPS COOKIE
  2

  3

  4

  6

  7

  8
b.kav
  9

300
=
301
=
302
=
303
=
304
=
305
=
306
=
307
=
308
=
309
=
 40
0.0
 41
2459741.476722002
 42
2459741.476722187
  1

 90
        0
  0
LAYOUT
  5
1E
102
{ACAD_REACTORS
330
1A
102
}
330
1A
100
AcDbPlotSettings
  1

  2
none_device
  4

  6

 40
0.0
 41
0.0
 42
0.0
 43
0.0
 44
0.0
 45
0.0
 46
0.0
 47
0.0
 48
0.0
 49
0.0
140
0.0
141
0.0
142
1.0
143
1.0
 70
   688
 72
     1
 73
     0
 74
     5
  7

 75
    16
147
1.0
148
0.0
149
0.0
100
AcDbLayout
  1
Layout1
 70
     1
 71
     1
 10
0.0
 20
0.0
 11
420.0
 21
297.0
 12
0.0
 22
0.0
 32
0.0
 14
1.0000000000E+20
 24
1.0000000000E+20
 34
1.0000000000E+20
 15
-1.0000000000E+20
 25
-1.0000000000E+20
 35
-1.0000000000E+20
146
0.0
 13
0.0
 23
0.0
 33
0.0
 16
1.0
 26
0.0
 36
0.0
 17
0.0
 27
1.0
 37
0.0
 76
     0
330
1B
  0
LAYOUT
  5
26
102
{ACAD_REACTORS
330
1A
102
}
330
1A
100
AcDbPlotSettings
  1

  2
none_device
  4

  6

 40
0.0
 41
0.0
 42
0.0
 43
0.0
 44
0.0
 45
0.0
 46
0.0
 47
0.0
 48
0.0
 49
0.0
140
0.0
141
0.0
142
1.0
143
1.0
 70
   688
 72
     1
 73
     0
 74
     5
  7

 75
    16
147
1.0
148
0.0
149
0.0
100
AcDbLayout
  1
Layout2
 70
     1
 71
     2
 10
0.0
 20
0.0
 11
0.0
 21
0.0
 12
0.0
 22
0.0
 32
0.0
 14
0.0
 24
0.0
 34
0.0
 15
0.0
 25
0.0
 35
0.0
146
0.0
 13
0.0
 23
0.0
 33
0.0
 16
1.0
 26
0.0
 36
0.0
 17
0.0
 27
1.0
 37
0.0
 76
     0
330
23
  0
LAYOUT
  5
22
102
{ACAD_REACTORS
330
1A
102
}
330
1A
100
AcDbPlotSettings
  1

  2
none_device
  4
Letter_(8.50_x_11.00_Inches)
  6

 40
6.35
 41
6.35
 42
6.35000508
 43
6.35000508
 44
215.9
 45
279.4
 46
0.0
 47
0.0
 48
0.0
 49
0.0
140
0.0
141
0.0
142
1.0
143
1.0
 70
  1712
 72
     1
 73
     0
 74
     0
  7

 75
     0
147
1.0
148
0.0
149
0.0
100
AcDbLayout
  1
Model
 70
     1
 71
     0
 10
0.0
 20
0.0
 11
279.4
 21
215.9
 12
0.0
 22
0.0
 32
0.0
 14
0.0
 24
0.0
 34
0.0
 15
279.4
 25
215.9
 35
0.0
146
0.0
 13
0.0
 23
0.0
 33
0.0
 16
1.0
 26
0.0
 36
0.0
 17
0.0
 27
1.0
 37
0.0
 76
     0
330
1F
331
29
  0
MLINESTYLE
  5
18
102
{ACAD_REACTORS
330
17
102
}
330
17
100
AcDbMlineStyle
  2
Standard
 70
     0
  3

 62
   256
 51
90.0
 52
90.0
 71
     2
 49
0.5
 62
   256
  6
BYLAYER
 49
-0.5
 62
   256
  6
BYLAYER
  0
ACDBPLACEHOLDER
  5
F
102
{ACAD_REACTORS
330
E
102
}
330
E
  0
SCALE
  5
48
102
{ACAD_REACTORS
330
47
102
}
330
47
100
AcDbScale
 70
     0
300
1:1
140
1.0
141
1.0
290
     1
  0
SCALE
  5
49
102
{ACAD_REACTORS
330
47
102
}
330
47
100
AcDbScale
 70
     0
300
1:2
140
1.0
141
2.0
290
     0
  0
SCALE
  5
4A
102
{ACAD_REACTORS
330
47
102
}
330
47
100
AcDbScale
 70
     0
300
1:4
140
1.0
141
4.0
290
     0
  0
SCALE
  5
4B
102
{ACAD_REACTORS
330
47
102
}
330
47
100
AcDbScale
 70
     0
300
1:5
140
1.0
141
5.0
290
     0
  0
SCALE
  5
4C
102
{ACAD_REACTORS
330
47
102
}
330
47
100
AcDbScale
 70
     0
300
1:8
140
1.0
141
8.0
290
     0
  0
SCALE
  5
4D
102
{ACAD_REACTORS
330
47
102
}
330
47
100
AcDbScale
 70
     0
300
1:10
140
1.0
141
10.0
290
     0
  0
SCALE
  5
4E
102
{ACAD_REACTORS
330
47
102
}
330
47
100
AcDbScale
 70
     0
300
1:16
140
1.0
141
16.0
290
     0
  0
SCALE
  5
4F
102
{ACAD_REACTORS
330
47
102
}
330
47
100
AcDbScale
 70
     0
300
1:20
140
1.0
141
20.0
290
     0
  0
SCALE
  5
50
102
{ACAD_REACTORS
330
47
102
}
330
47
100
AcDbScale
 70
     0
300
1:30
140
1.0
141
30.0
290
     0
  0
SCALE
  5
51
102
{ACAD_REACTORS
330
47
102
}
330
47
100
AcDbScale
 70
     0
300
1:40
140
1.0
141
40.0
290
     0
  0
SCALE
  5
52
102
{ACAD_REACTORS
330
47
102
}
330
47
100
AcDbScale
 70
     0
300
1:50
140
1.0
141
50.0
290
     0
  0
SCALE
  5
53
102
{ACAD_REACTORS
330
47
102
}
330
47
100
AcDbScale
 70
     0
300
1:100
140
1.0
141
100.0
290
     0
  0
SCALE
  5
54
102
{ACAD_REACTORS
330
47
102
}
330
47
100
AcDbScale
 70
     0
300
2:1
140
2.0
141
1.0
290
     0
  0
SCALE
  5
55
102
{ACAD_REACTORS
330
47
102
}
330
47
100
AcDbScale
 70
     0
300
4:1
140
4.0
141
1.0
290
     0
  0
SCALE
  5
56
102
{ACAD_REACTORS
330
47
102
}
330
47
100
AcDbScale
 70
     0
300
8:1
140
8.0
141
1.0
290
     0
  0
SCALE
  5
57
102
{ACAD_REACTORS
330
47
102
}
330
47
100
AcDbScale
 70
     0
300
10:1
140
10.0
141
1.0
290
     0
  0
SCALE
  5
58
102
{ACAD_REACTORS
330
47
102
}
330
47
100
AcDbScale
 70
     0
300
100:1
140
100.0
141
1.0
290
     0
  0
SCALE
  5
59
102
{ACAD_REACTORS
330
47
102
}
330
47
100
AcDbScale
 70
     0
300
1/128" = 1'-0"
140
0.0078125
141
12.0
290
     0
  0
SCALE
  5
5A
102
{ACAD_REACTORS
330
47
102
}
330
47
100
AcDbScale
 70
     0
300
1/64" = 1'-0"
140
0.015625
141
12.0
290
     0
  0
SCALE
  5
5B
102
{ACAD_REACTORS
330
47
102
}
330
47
100
AcDbScale
 70
     0
300
1/32" = 1'-0"
140
0.03125
141
12.0
290
     0
  0
SCALE
  5
5C
102
{ACAD_REACTORS
330
47
102
}
330
47
100
AcDbScale
 70
     0
300
1/16" = 1'-0"
140
0.0625
141
12.0
290
     0
  0
SCALE
  5
5D
102
{ACAD_REACTORS
330
47
102
}
330
47
100
AcDbScale
 70
     0
300
3/32" = 1'-0"
140
0.09375
141
12.0
290
     0
  0
SCALE
  5
5E
102
{ACAD_REACTORS
330
47
102
}
330
47
100
AcDbScale
 70
     0
300
1/8" = 1'-0"
140
0.125
141
12.0
290
     0
  0
SCALE
  5
5F
102
{ACAD_REACTORS
330
47
102
}
330
47
100
AcDbScale
 70
     0
300
3/16" = 1'-0"
140
0.1875
141
12.0
290
     0
  0
SCALE
  5
60
102
{ACAD_REACTORS
330
47
102
}
330
47
100
AcDbScale
 70
     0
300
1/4" = 1'-0"
140
0.25
141
12.0
290
     0
  0
SCALE
  5
61
102
{ACAD_REACTORS
330
47
102
}
330
47
100
AcDbScale
 70
     0
300
3/8" = 1'-0"
140
0.375
141
12.0
290
     0
  0
SCALE
  5
62
102
{ACAD_REACTORS
330
47
102
}
330
47
100
AcDbScale
 70
     0
300
1/2" = 1'-0"
140
0.5
141
12.0
290
     0
  0
SCALE
  5
63
102
{ACAD_REACTORS
330
47
102
}
330
47
100
AcDbScale
 70
     0
300
3/4" = 1'-0"
140
0.75
141
12.0
290
     0
  0
SCALE
  5
64
102
{ACAD_REACTORS
330
47
102
}
330
47
100
AcDbScale
 70
     0
300
1" = 1'-0"
140
1.0
141
12.0
290
     0
  0
SCALE
  5
65
102
{ACAD_REACTORS
330
47
102
}
330
47
100
AcDbScale
 70
     0
300
1-1/2" = 1'-0"
140
1.5
141
12.0
290
     0
  0
SCALE
  5
66
102
{ACAD_REACTORS
330
47
102
}
330
47
100
AcDbScale
 70
     0
300
3" = 1'-0"
140
3.0
141
12.0
290
     0
  0
SCALE
  5
67
102
{ACAD_REACTORS
330
47
102
}
330
47
100
AcDbScale
 70
     0
300
6" = 1'-0"
140
6.0
141
12.0
290
     0
  0
SCALE
  5
68
102
{ACAD_REACTORS
330
47
102
}
330
47
100
AcDbScale
 70
     0
300
1'-0" = 1'-0"
140
12.0
141
12.0
290
     0
  0
ENDSEC
  0
EOF
